Thunder Tabs & Lyrics by Labyrinth

Thunder

guitar tabs lyrics

Labyrinth

Album : Return to Heaven Denied power metal PlayStop


LABYRINTH - Thunder (from "Return To Heaven Denied)

tabbed by Giacomo Fusetti (facethefall@supereva.it or hobbiville@libero.it)
thanx to Olaf for his precious Thunder tabs
THE SOLO IS TABBED BY OLAF THORSEN AND TAKEN FROM HIS OWN WEBSITE.

I know it's incomplete and surely wrong in some parts, but here it is. I tabbed it at least
6/7 months ago, and now I haven't enough time to correct it.

tune one half step down


Intro

Riff 1
|---------------------------------------------------|gtr. 1
|---------------------------------------------------|
|---------------------------------------------------|
|-2-------------------------------------------------|
|-0-------------------------------------------------|
|---------------------------------------------------|
| |
| |
|---------------------------------------------------|gtr. 2
|---------------------------------------------------|
|---------------------------------------------------|
|-2-------------------------------0-10--9--7--5--7--|
|-0-0-0-0-0-0-0-0-0-0-0-0-0-0-0-0-0--8--7--5--3--5--|
|---------------------------------------------------|
pm.............................


|---------------------------------------------------|gtr. 1
|---------------------------------------------------|
|---------------------------------------------------|
|-2--------------------------------~~~--------------|
|-0-------------------------------2------/7--5--7---|
|---------------------------------------------------|
| |
| |
|---------------------------------------------------|gtr. 2
|---------------------------------------------------|
|---------------------------------0-----------------|
|-2-------------------------------0-----------------|
|-0-0-0-0-0-0-0-0-0-0-0-0-0-0-0-0--------10--9-10---|
|---------------------------------3-------8--7--8---|
pm.............................


|---------------------------------------------------|gtr. 1
|---------------------------------------------------|
|---------------------------------------------------|
|-2-------------------------------------------------|
|-0-------------------------------------------------|
|---------------------------------------------------|
| |
| |
|---------------------------------------------------|gtr. 2
|---------------------------------------------------|
|---------------------------------------------------|
|---------------------------------0-10--9--7--5--7--|
|-5/7-----------------------------0--8--7--5--3--5--|
|-3/5-5-5-5-5-5-5-5-5-5-5-5-5-5-5-------------------|
pm.............................


|---------------------------------------------------|gtr. 1
|---------------------------------------------------|
|---------------------------------------------------|
|-2--------------------------------~~~--------------|
|-0-------------------------------2------/7--5--7---|
|---------------------------------------------------|
| |
| |
|---------------------------------------------------|gtr. 2
|---------------------------------------------------|
|---------------------------------0-----------------|
|-2-------------------------------0-----------------|
|-0-0-0-0-0-0-0-0-0-0-0-0-0-0-0-0-------/10--9-10---|
|---------------------------------3-----/-8--7--8---|
pm.............................


Riff 2
|---------------------------------------------------|gtr. 1
|---------------------------------------------------|
|------------------------------------------------0--|
|-2----------------------------------------------0--|
|-0---0-0-0-0-0-0-0-0-0-0-0-0-0-0-0--8--7--5--3-----|
|---------------------------------------------------|
| pm........................... |
| |
|---------------------------------------------------|gtr. 2
|---------------------------------------------------|
|---------------------------------------------------|
|-2-------------------------------0-10--9--7--5--7--|
|-0-0-0-0-0-0-0-0-0-0-0-0-0-0-0-0-0--8--7--5--3--5--|
|---------------------------------------------------|
pm...........................


|---------------------------------------------------|gtr. 1
|---------------------------------------------------|
|---------------------------------------------------|
|-2--------------------------------~~~--------------|
|-0---0-0-0-0-0-0-0-0-0-0-0-0-0-0-2------/7--5--7---|
|---------------------------------------------------|
| pm........................... |
| |
|---------------------------------------------------|gtr. 2
|---------------------------------------------------|
|---------------------------------------------------|
|-2-------------------------------------------------|
|-0-0-0-0-0-0-0-0-0-0-0-0-0-0-0-0-5------10--9-10---|
|---------------------------------3-------8--7--8---|
pm...........................


|---------------------------------------------------|gtr. 1
|---------------------------------------------------|
|------------------------------------------------0--|
|-2-------------------------------2--------------0--|
|-0---0-0-0-0-0-0-0-0-0-0-0-0-0-0-0--8--7--5--3-----|
|---------------------------------------------------|
| |
| |
|---------------------------------------------------|gtr. 2
|---------------------------------------------------|
|---------------------------------------------------|
|-2-------------------------------0-10--9--7--5--7--|
|-0-0-0-0-0-0-0-0-0-0-0-0-0-0-0-0-0--8--7--5--3--5--|
|---------------------------------------------------|




|---------------------------------------------------|gtr. 1
|---------------------------------------------------|
|---------------------------------------------------|
|-2--------------------------------~~~---------~~~--|
|-0---0-0-0-0-0-0-0-0-0-0-0-0-0-0-2---------/14-----|
|---------------------------------------------------|
| |
| |
|---------------------------------------------------|gtr. 2
|---------------------------------------------------|
|---------------------------------------------------|
|-2-------------------------------------------------|
|-0-0-0-0-0-0-0-0-0-0-0-0-0-0-0-0-5------------~~~--|
|---------------------------------3---------/15-----|



Verse
Riff 3 x2 + Riff 3a
|---------------------------------------------------|gtr. 1
|---------------------------------------------------|
|------------------------------------------------0--|
|-2----------------------------------------------0--|
|-0---0-0-0-0-0-0-0-0-0-0-0-0-0-0-0--8--7--5--3-----|
|---------------------------------------------------|
| pm........................... |
| |
|---------------------------------------------------|gtr. 2
|---------------------------------------------------|
|---------------------------------------------------|
|-2-------------------------------0-10--9--7--5--7--|
|-0-0-0-0-0-0-0-0-0-0-0-0-0-0-0-0-0--8--7--5--3--5--|
|---------------------------------------------------|
pm.............................

|---------------------------------------------------|gtr. 1
|---------------------------------------------------|
|---------------------------------------------------|
|-2--------------------------------~~~--------------|
|-0---0-0-0-0-0-0-0-0-0-0-0-0-0-0-2------/7--5--7---|
|---------------------------------------------------|
| pm......................... |
| |
|---------------------------------------------------|gtr. 2
|---------------------------------------------------|
|---------------------------------------------------|
|-2-------------------------------------------------|
|-0-0-0-0-0-0-0-0-0-0-0-0-0-0-0-0-5------10--9-10---|
|---------------------------------3-------8--7--8---|
pm.............................

Riff 3a
(kbd. riff)
|---------------|gtrs 1&2
|---------------|
|---------------|
|-2-------------|
|-0-------------|
|---------------|



Riff 3 x2 + Riff 3b


Riff 3b
|---------|gtrs 1&2
|---------|
|---------|
|----5----|
|-5--3----|
|-3-------|



Chorus
Riff 4

|-----------------------------------------------------------------------|gtr. 1
|-----------------------------------------------------------------------|
|------5--------------------5-------------------------------------------|
|-3----5----5----7--2--3----5-----~~~~----~~~---------------------------|
|-3----3----5----7--2--3----3----2-----/14---------------2---2---2----2-|
|-1---------3----5--0--1---------------------------------0---0---0----0-|
| pm............ |
| |
|-----------------------------------------------------------------------|gtr. 2
|-----------------------------------------------------------------------|
|------5--------------------5-------------------------------------------|
|-3----5----5----7--2--3----5----5--------------------------------------|
|-3----3----5----7--2--3----3----5--------~~~------------2---2---2----2-|
|-1---------3----5--0--1---------3-----/15---------------0---0---0----0-|
| pm............ |
| |
|---------------------------------------------------5------------5----7-|gtr. 3
|---------------------------------------5---6---8--------6---8----------|
|-----------------------------------------------------------------------|
|-----------------------------------------------------------------------|
|-----------------------------------------------------------------------|
|-----------------------------------------------------------------------|
| |
| p p p p p p p p p p p p p p p|
|---------------------------------------7-0-5-0-8-0-7-0-10-0-8-0-7-0-10-|gtr. 4
|-----------------------------------------------------------------------|
|-----------------------------------------------------------------------|
|-----------------------------------------------------------------------|
|-----------------------------------------------------------------------|
|-----------------------------------------------------------------------|



|------------------------------------------------------------|gtr. 1
|------------------------------------------------------------|
|------5--------------------5--------------------------------|
|-3----5----5----7--2--3----5-----~~~~----~~~----------------|
|-3----3----5----7--2--3----3----2-----/14-------------------|
|-1---------3----5--0--1-------------------------------------|
| |
| |
|------------------------------------------------------------|gtr. 2
|------------------------------------------------------------|
|------5--------------------5--------------------------------|
|-3----5----5----7--2--3----5----5---------------------------|
|-3----3----5----7--2--3----3----5--------~~~----------------|
|-1---------3----5--0--1---------3-----/15-------------------|
| |
| ~~~~ |
|-10------------------------------------10--8--7-5--8--7-5-3-|gtr. 3
|------------------------------------------------------------|
|------------------------------------------------------------|
|------------------------------------------------------------|
|------------------------------------------------------------|
|------------------------------------------------------------|
| |
| ~~~~ |
|-10------------------------------------13-12-10-8-12-10-8-7-|gtr. 4
|------------------------------------------------------------|
|------------------------------------------------------------|
|------------------------------------------------------------|
|------------------------------------------------------------|
|------------------------------------------------------------|




Riff 5 x 5
|-5-0-0-3-0-0-5-0-0-0--8-0--7-0--8-0-5-0-0-3-0-0-5-0-0-0-10-0--8-0--7-0-|gtr. 3
|-----------------------------------------------------------------------|
|-----------------------------------------------------------------------|
|-----------------------------------------------------------------------|
|-----------------------------------------------------------------------|
|-----------------------------------------------------------------------|
| |
| |
|-8-0-0-7-0-0-8-0-0-0-12-0-10-0-12-0-8-0-0-7-0-0-8-0-0-0-13-0-12-0-10-0-|gtr. 4
|-----------------------------------------------------------------------|
|-----------------------------------------------------------------------|
|-----------------------------------------------------------------------|
|-----------------------------------------------------------------------|
|-----------------------------------------------------------------------|


|-5-0-0-3-0-0-5-0-0-0--8-0--7-0--8-0--8--7-5----------5--7--8--7-5----------5-7--|gtr. 3
|---------------------------------------------8--6--8---------------8--6--8------|
|--------------------------------------------------------------------------------|
|--------------------------------------------------------------------------------|
|--------------------------------------------------------------------------------|
|--------------------------------------------------------------------------------|
| |
| |
|-8-0-0-7-0-0-8-0-0-0-12-0-10-0-12-0-12-10-8----------8-10-12-10-8----------8-10-|gtr. 4
|--------------------------------------------12-10-12--------------12-10-12------|
|--------------------------------------------------------------------------------|
|--------------------------------------------------------------------------------|
|--------------------------------------------------------------------------------|
|--------------------------------------------------------------------------------|



Riff 3 x 2 + Riff 3a

Riff 3 x 2 + Riff 3b

Riff 4

Riff 5 x 2




OLAF SOLO (Tabbed by Olaf Thorsen himself)


AH
|--------~12~13~15~13~12-------15p12--12-15p12--12-13p10--10-13p10--10/17----20p17-------|
|----------------------~13----------13--------13--------12--------12--------------18--18-|
|--3----------------------~14-------------------------------------------------------17---|
|----------------------------------------------------------------------------------------|
|----------------------------------------------------------------------------------------|
|----------------------------------------------------------------------------------------|
Tremolo
Down



|-17h20p17-20-17------17-20-17-22p19------19h22p19-22-19-------19-22-19-15p12------12h19p15-----------15-19-15------|
|---------------18--18--------------20--20---------------20--20--------------13--13--------17------17----------~17--|
|-----------------17------------------19-------------------19------------------12------------16--16-----------------|
|----------------------------------------------------------------------------------------------17-------------------|
|-------------------------------------------------------------------------------------------------------------------|
|-------------------------------------------------------------------------------------------------------------------|


|-12--------------12---->171513

Like us on Facebook.....
-> Loading Time :0.0153 sec