Three Years Ago Today Tabs & Lyrics by Built to Spill

Three Years Ago Today

guitar tabs lyrics

Built to Spill

Album : Ultimate Alternative Wavers indie rock PlayStop


Tabbed by:CMM
Email: [email protected]

Tuning:Standard

(Main Riff/Intro)
e|-----------------------------------------------------|
B|-----------------------------------------------------|
G|-6--6--x--------------6--6-6--x------------7-7-x-x---|
D|-x--x--x--6--x--7--x--x--x-x--x--6--x--7---x-x-x-x---|

A|-5--5--x--x--x--x--x--5--5-5--x--x--x--x---5-5-x-x---|
E|----------4--x--5--x-------------4--x--5-------------|

(Intro Solo)
e|-------------------------------------------------------|
B|-------------------------------------------------------|
G|-------------------------------------------------------|
D|-------------------------------------------------------|
A|-/4--5--7--4----------------/4--5--7--9--7\5--5-5-7-5--|
E|--------------5--2---5--2------------------------------|

(Verse Chord Progression)
e|--0---4---0---0---|
B|--2---5---0---2---|
G|--2---6---1---2---|
D|--2---6---2---2---|
A|--0---4---2---0---|
E|----------0-------|
A C#m E A

(Verse Ending Fill)
e|-0-0-0-0-0-0-0-0-0-0-0-0-0-0-0-0--|
B|-4-4-4-4-4-4-4-4-3-3-3-3-3-5-3-3--|
G|-4-4-4-4-4-4-4-4-4-4-4-4-4-4-4-4--|
D|----------------------------------|
A|----------------------------------|
E|----------------------------------|
B Bm

(Chorus Chord Progression)
e|--0---0---3---2---|
B|--2---0---3---3---|
G|--2---1---0---2---|
D|--2---2---0---0---|
A|--0---2---2-------|
E|------0---3-------|
A E G D

(Bridge pt.One)
e|-----------------------------------------------------------------|
B|-----------------------------------------------------------------|
G|-----------------------------------------------------------------|
D|------------2h4--2--2p0------------------------------------------|
A|-------2h4---------------4p0--5-5-5-/11-11-11---5-5-5-/11-11-11--|
E|--2h4------------------------------------------------------------|

e|-----------------------------------------------------------------|
B|---------------------------3-3-3-/9-9-9---3-3-3-/9-9-9--/10------|
G|--------------------4p2\1----------------------------------------|
D|------------2h4--2-----------------------------------------------|
A|-------2h4-------------------------------------------------------|
E|--2h4------------------------------------------------------------|

(Bridge pt.Two)
e|-----------------------------------------------------------------|
B|-----------------------------------------------------------------|
G|-----------------------------------------------------------------|
D|------------2h4--2--2p0------------------------------------------|
A|-------2h4---------------4p0--5-5-5-/11-11-11---5-5-5-/11-11-11--|
E|--2h4------------------------------------------------------------|

e|-------------------------------------------------------------------------|
B|-------------------------------15-15-15-/21-21-21--15-15-15-/21-21-21-/22|
G|----------------------16p14\13-------------------------------------------|
D|-------------14h16-14----------------------------------------------------|
A|-------14h16-------------------------------------------------------------|
E|-14h16-------------------------------------------------------------------|

Note: I only put the definite parts to this song in this tab. The rest of
the solos and improvising should be random like Doug would do it.

| / slide up
| \ slide down
| h hammer-on
| p pull-off
| ~ vibrato
| + harmonic
| x Mute note
===============================================================================


Like us on Facebook.....
-> Loading Time :0.0217 sec