This Means War Tabs & Lyrics by Avenged Sevenfold

This Means War

guitar tabs lyrics

Avenged Sevenfold

Album : Hail to the King heavy metal PlayStop


intro Lead Guitar:
|------------------------------------------------------------------------| X4
|-----------15------------13------------15----16-16-15-13----------------|
|--15-15--15---15-15---15---15-15---15-----------------------------------|
|------------------------------------------------------------------------|
|------------------------------------------------------------------------|
|------------------------------------------------------------------------|

Intro Rhythm Guitar:
|--------------------------------------------------|

|--------------------------------------------------|
|--------------------------------------------------|
|--------------5-----------------------------------|
|--5-----1-----3-------8----7-------5--------------|
|--5-----1-------------8----7-------5--------------|


The Awesome Riff: X2
|--------------------------------------------------|
|--------------------------------------------------|
|--------------------------------------------------|
|--------------------------------------------------|
|---0-----8-8-6h8p6/5--5---------------------------|
|---0----------------------------------------------|

|------------------------------------------|
|------------------------------------------|
|------------------------------------------|
|------------------------------------------|
|--0---0----8-8-6h8p6/5---10-5--------------|
|--0---0-----------------------------------|

|------------------------------------------------------------------|
|------------------------------------------------------------------|
|------------------------------------------------------------------|
|---0-----8-8-6h8p6/5--5---------------5-------7------8------------|
|---0-------------------------------0--3---0---5--0---6---- (-1---|

Like us on Facebook.....
-> Loading Time :0.0106 sec