The Reaper Tabs & Lyrics by Witchery

The Reaper

guitar tabs lyrics

Witchery

Album : Restless & Dead thrash metal PlayStop


WITCHERY - THE REAPER
From the Album RESTLESS & DEAD
Copyright NECROPOLIS RECORDS
Version 1.0 - JANUARY 2001

Transcribed by: HARIS DURAKOVIC

For Questions, Comments, Newest Version, or Corrections contact
HARIS DURAKOVIC: at foreverlorn@gmx.de

Check Out Death Warp, With More Transcriptions On It:
http://tiger.towson.edu/~dalvis1

.. - palm mute / - slide up to
\ - slide down to ~ - vibrato
h - hammer on b - bend
p - pull off Suffixes for bend
ph - pinch harmonic
f - full bend h - half bend
* - see comment r - release t - tap bend
X - percussion mute ~ - vibrato bend
@ - slight palm mute () - ghost note, sustained note



--The reaper--


Intro
|--------------------------------------------------------------------|
|--------------------------------------------------------------------|
|--------------------------------------------------------------------|Gtr
|-5-5-5-7-2-------------------5-5-5-7-2------------------------------| I
|-5-5-5-7-2-------------------5-5-5-7-2------------------------------|
|-3-3-3-5-0-------------------3-3-3-5-0------------------------------|
| |
|--------------------------------------------------------------------|
|--------------------------------------------------------------------|
|--------------------------------------------------------------------|Gtr
|---------------------------------------x--x-x--x-x------------------| II
|-----------4bh-(very slowly)-----------x--x-x--x-x------------------|
|-----------4bh-------------------------x--x-x--x-x------------------|



Riff A
|--------------------------------------------------------------------|
|--------------------------------------------------------------------|
|--------------------------------------------------------------------|Gtr
|-5-5-5-7-2-----2-----2-----2-----5-5-5-7-2-----2-----2-----2--------|I+II
|-5-5-5-7-2-----2-----2-----2-----5-5-5-7-2-----2-----2-----2--------|
|-3-3-3-5-0-000-0-000-0-000-0-000-3-3-3-5-0-000-0-000-0-000-0-000----|
... ... ... ... ... ... ... ...

*
|--------------------------------------------------------------------|
|--------------------------------------------------------------------|
|--------------------------------------------------------------------|
|-5-5-5-7-2-----2-----2-----2-----5-5-5-7-2-----2-----2--------------|
|-5-5-5-7-2-----2-----2-----2-----5-5-5-7-2-----2-----2--------------|
|-3-3-3-5-0-000-0-000-0-000-0-000-3-3-3-5-0-000-0-000-0-000----------|
... ... ... ... ... ... ...


*Fill in
|---------------|
|---------------|
|---------------|
|-8-8-5-5-7-7-5-|
|-8-8-5-5-7-7-5-|
|-6-6-3-3-5-5-3-|



Chorus
|-------------------------------------------------|
|-------------------------------------------------|
|-------------------------------------------------|
|---------5-------7-------8---------------5-------|
|-5-7-------7-------7-------7-----5-7-------7-----|
|-----0-0-----0-0-----0-0-----0-0-----0-0-----0-0-|
. . . . . . . . . . . .


first ending second ending
|----------------|------------|
|----------------|------------|
|----------------|------------|
|-8-8-8-8--7-5-3-|-8-7----5-3-|
|-8-8-8-8--7-5-3-|-8-7----5-3-|
|-6-6-6-6--5-3-1-|-6-5----3-1-|


Riff A


Chorus (first part
and first ending
the same) but second
ending like this
|---------------|
|---------------|
|---------------|
|-8-8-8-8-8-7-5-|
|-8-8-8-8-8-7-5-|
|-6-6-6-6-6-5-3-|


Fill in
|-----------------|
|-----------------|
|------9--9--9--9-|
|-6---------------|
|-6----6--6--6--6-|
|-4---------------|


Riff B (2 times)
|---------------------------------------------------------------------|
|---------------------------------------------------------------------|
|---------------------------------------------------------------------|
|---------------------------------------------------------------------|
|-1-----2-1--------4-----5-4--------1-----2-1--------4-----5-4--------|
|---000-----000000---000-----000000---000-----000000---000-----1-2-3--|
... ...... ... ...... ... ...... ... . . .


|---------------------------------------------------------------------|
|---------------------------------------------------------------------|
|---------------------------------------------------------------------|
|---------------------------------------------------------------------|
|-1-----2-1--------4-----5-4--------0-000-3-0-000000-4-000-5-4-000000-|
|---333-----333333---333-----333333-----------------------------------|
... ...... ... ...... ... ...... ... ......


Second time ending with
|---------------------------------------------------------------------|
|---------------------------------------------------------------------|
|---------------------------------------------------------------------|
|---------------------------------------------------------------------|
|-0-000-3-0-000000-4-000-5-4-000000-0-000-3-0-000000-4-000-5-4--------|
|------------------------------------------------------------5--------|


Last chorus guit I plays the same
|-------------------------------------|
|-------------------------------------|
|-------------------------------------|Guit
|-------------------------------------| II
|---------5-------7-------8-----------|
|-5-7-0-0---7-0-0---7-0-0---7-0-0-...-|
. . . . . . . .


End
|--------------|
|--------------|
|--------------|
|-5--------3-2-|
|-5--------3-2-|
|-3--------1-0-|



Check Out Death Warp, With More Transcriptions On It:
http://tiger.towson.edu/~dalvis1

Like us on Facebook.....
-> Loading Time :0.0072 sec