The Miracle Tabs & Lyrics by Suicidal Tendencies

The Miracle

guitar tabs lyrics

Suicidal Tendencies

Album : How Will I Laugh Tomorrow When I Can't Even Smile Today thrash metal PlayStop


Band: Suicidal Tendencies
Album: How Will I Laugh Tomorrow When I can't Even Smile Today
Song: The Miracle

Copyright (c) (Virgin) (1988)
Version 1.0 - (05/04/05)

Transcribed By: Steve
Email: stephen.elvidge1@ntlworld.com


. - palm mute / - slide up to
\ - slide down to ~ - vibrato
h - hammer on b - Bend
p - pull off Suffixes for bend
t - tap f - full bend h - half bend
ph - pinched harmonic q - quarter bend t - tap bend
* - see comment ^ - Hold bend r release bend
x - Stuccatto ~ - vibrato bend
, - slight palm mute () - ghost note, sustained note
" - tremolo note - Trill

Tunning E A D G B E


Intro

E-------|
B-------|
G-------|
D-------|
A-16\---|
E-16\---|

[---PM----]
E-------------|
B-------------|
G-------------|
D-------------|
A-------------|
E-4-444-4-2-3-| Rpt 26 X

[--PM--]
E--------------|
B--------------|
G--------------|
D--------------|
A-6-------4/5/-|
E-4-444-4-2/3/-| Rpt 6 X

[---PM----]
E-------------|
B-------------|
G-------------|
D-------------|
A-------------|
E-4-444-4-2-3-| Rpt 20 X

[-PM----]
E--------------|
B--------------|
G--------------|
D--------------|
A-6-------4/5/-|
E-4-444-4-2/3/-| Rpt 3 X

[-PM----]
E-------------|
B-------------|
G-------------|
D-------------|
A-6-----6-5\4-|
E-4-444-4-3\2-|



h h h
E-------------------------------------|
B-------------------------------------|
G-------------------------------------|
D------------7-8-7-8p7---7------------|
A-2--2--2--2-----------8---8p7-8p7----|
E-0--0--0--0-----------------------7--|


h h
E-----------------------------------|
B-----------------------------------|
G-----------------------------------|
D------------7-8-7-8p7---7----------|
A-2--2--2--2-----------8---8/10-\---|
E-0--0--0--0------------------------|

Rpt above 2 riffs
[---PM---] h h h [---PM---] h h h
E------------------------------------------------------|
B------------------------------------------------------|
G------------------------------------------------------|
D-----------7-8p7-8p7-8p7\5----------------------------|
A-------------------------------------7-8p7-8p7-8p7\5--|
E-0-000-000-----------------0-000-000------------------|


[---PM---] h h h
E-----------------------------------------|
B-----------------------------------------|
G-----------------------------------------|
D-----------7-8p7-8p7-8p7\5-3-2-----------|
A-------------------------------3-2-------|
E-0-000-000-------------------------3-2---|

Main Riff

[----PM-----]
E----------------------------|
B----------------------------|
G----------------------------|
D---------------3-2----------|
A-2-----------------3-2------|
E-0-000-000-000---------3-2--| Rpt 4 X

Verse Riff

[-----------PM-------------]
E---------------------------------------------------|
B---------------------------------------------------|
G---------------------------------------------------|
D-5/7--8\7--5/7--8\7--7\5-55-55-55-55\4-44-44-44-44-|
A-3/5--6\5--3/5--6\5--5\3-33-33-33-33\2-22-22-22-22-|
E---------------------------------------------------| Rpt 4 X

Rpt Main riff 4 X For Chorus
Rpt Verse

Interlude

Guitar 1
[---PM---]
E-----------------------------|
B-----------------------------|
G-----------------------------|
D-5----(5)-------------6\5----|
A-3----(3)----6--6\5/6-4\3----|
E-------------4--4\3/4--------|

Guitar 2
~~~~~~~~~~
E-----------------------------|
B-----------------------------|
G-----------------------------|
D-5---------------------/6p5--|
A-------------6--6p5-6p5------|
E-----------------------------| Rpt 3 X

Guitar 1

E-----------------------------|
B-----------------------------|
G-----------------------------|
D-5----(5)----3----(3)--------|
A-3----(3)----1----(1)--------|
E-----------------------------|
Guitar 2
~~~~~~~~~~ ~~~~~~~~~~~
E-----------------------------|
B-----------------------------|
G-----------------------------|
D-5---------5\3---------------|
A-----------------------------|
E-----------------------------|

Rpt above riffs 2 X

[--PM--] [------PM-----]
E---------------------------|
B---------------------------|
G---------------------------|
D-5---5---------------6\5---|
A-3-333-35/6-----6\5/6-4\3--|
E--------3/4-444-4\3/4------| Rpt 3 X

[--PM--] [-PM--]
E-----------------------|
B-----------------------|
G-----------------------|
D-5---5----3---3-3-3-3--|
A-3-333-35-1-111-1-1-1--|
E--------3--------------|

[--PM--] [------PM-----]
E---------------------------|
B---------------------------|
G---------------------------|
D-5---5---------------6\5---|
A-3-333-35/6-----6\5/6-4\3--|
E--------3/4-444-4\3/4------| Rpt 3 X

[--PM--] [-PM--]
E-----------------------|
B-----------------------|
G-----------------------|
D-5---5----3-----(3)----|
A-3-333-35-1-----(1)----|
E--------3--------------|

[----PM-----] [---PM--]
E-----------------------------------|
B-----------------------------------|
G-----------------------------------|
D-5---5---5---5-----------------6\5-|
A-3-333-333-333-5/6---6---6-5/6-4\3-|
E---------------3/4-444-444-3/4-----| Rpt 3 X

[----PM-----] [---PM--]
E-----------------------------------|
B-----------------------------------|
G-----------------------------------|
D-5---5---5---5---3---3---3---3-----|
A-3-333-333-333-5-1-111-111-111-----|
E---------------3-------------------|

Rpt above riffs 2 X
Rpt Verse for guitar solo backing.
Rpt first interlude riffs to fade




END

Like us on Facebook.....
-> Loading Time :0.0131 sec