The Mechanix Tabs & Lyrics by Metallica

The Mechanix

guitar tabs lyrics

Metallica

Album : In for the Kill ('82 Outtakes)PlayStop

THE MECHANIX
As recorded by Metallica
(From the 1982 EP NO LIFE TIL' LEATHER)

Words and Music by Dave Mustaine
Arranged by Metallica
Transcribed by Rick Dobbins

Gtr I (E A D G B E) - 'James Hetfield'
Gtr II (E A D G B E) - 'Dave Mustaine'
Gtr III (E A D G B E) - 'Dave Mustaine - Solo'


Intro
Fast Rock Q=217(8=s8)
N.C.
4/4
Gtr I
PM-----------------------------------------------
Q Q Q Q Q Q Q Q Q Q Q Q Q Q Q Q
|-------------------------|-----------------------|
|-------------------------|-----------------------|
|-------------------------|-----------------------|
|-------------------------|-----------------------|
|-7--5--7--5--7--5--7--5--|-7--5--7--5--7--5--5-5-|
|-0-(0)-0-(0)-0-(0)-0-(0)-|-0-(0)-0-(0)-0-(0)-7p0-|


---------------------|
Q Q Q Q Q Q Q Q Q Q Q Q Q Q Q Q
|-----------------------|-----------------|
|-----------------------|-----------------|
|-----------------------|-----------------|
|-----------------------|-------5h7p5-----|
|-7--5--7--5--7--5--5-5-|---5h7-------7p5-|
|-0-(0)-0-(0)-0-(0)-7p0-|-7---------------|


C5 G5 D5 C5
PM--------------------------------------------|
E Q Q Q Q Q Q Q Q Q Q Q Q Q Q Q Q Q Q Q
|-------------------------|-----------------------|-------------|
|-------------------------|-----------------------|-------------|
|-------------------------|-----------------------|-------------|
|-------------------------|-----------------------|-5-----7--5--|
|-7--5--7--5--7--5--7--5--|-7--5--7--5--7--5--5-5-|-3--5--5--3--|
|-0-(0)-0-(0)-0-(0)-0-(0)-|-0-(0)-0-(0)-0-(0)-7p0-|----3--------|


N.C.
Gtrs I, II
PM------------------------------------------------|
E E E E E E E E E E E E E E E E E E E E E E E E E E E E E E E E
|-----------------|-----------------|-----------------|-----------------|
|-----------------|-----------------|-----------------|-----------------|
|-----------------|-----------------|-----------------|-----------------|
|-----------------|-----------------|-----------------|-------5-7p5-----|
|-7-5-7-5-7-5-7-5-|-7-5-7-5-7-5-5-5-|-7-5-7-5-7-5-5-5-|---5h7-------7p5-|
|-0---0---0---0---|-0---0---0---7---|-0---0---0---7---|-7---------------|


C5 G5 D5 C5
PM------------------------------|
E E E E E E E E E E E E E E E E Q Q Q Q
|-----------------|-----------------|-------------||
|-----------------|-----------------|-------------||
|-----------------|-----------------|-------------||
|-----------------|-----------------|-5-----7--5--||
|-7-5-7-5-7-5-7-5-|-7-5-7-5-7-5-5-5-|-3--5--5--3--||
|-0---0---0---0---|-0---0---0---7---|----3--------||


E5 D5 E5
PM--| PM--| PM--| PM--| PM--|
|-3-| |-3-| |-3-| |-3-| |-3-|
E E E Q E E E Q E E E Q Q Q E E E Q E E E Q
|-------------------|----------------|-------------------|
|-------------------|----------------|-------------------|
|-------------------|----------------|-------------------|
|-------9--------9--|-------9--7--7--|-------9--------9--|
|-------7--------7--|-------7--5--5--|-------7--------7--|
|-0-0-0----0-0-0----|-0-0-0----------|-0-0-0----0-0-0----|


C5 D5 E5 G5 E5 C5 G5 D5 C5
PM--| PM--| PM--| PM--|
|-3-| |-3-| |-3-| |-3-|
E E E Q Q Q E E E Q E E E Q E E E Q Q Q Q Q Q Q
|----------------|-------------------|-----------------|-------------||
|----------------|-------------------|-----------------|-------------||
|----------------|-------------------|-----------------|-------------||
|-------9--5--7--|-------9--------9--|-------9--12--9--|-5-----7--5--||
|-------7--3--5--|-------7--------7--|-------7--10--7--|-3--5--5--3--||
|-0-0-0----------|-0-0-0----0-0-0----|-0-0-0-----------|----3--------||


Verse
E5 D5 E5
PM--| PM--| PM--| PM--| PM--|
|-3-| |-3-| |-3-| |-3-| |-3-|
E E E Q E E E Q E E E Q Q Q E E E Q E E E Q
||--------------------|----------------|--------------------|
||o-------------------|----------------|--------------------|
||--------------------|----------------|--------------------|
||--------9--------9--|-------9--7--7--|-------9--------9---|
||o-------7--------7--|-------7--5--5--|-------7--------7---|
||--0-0-0----0-0-0----|-0-0-0----------|-0-0-0----0-0-0-----|


C5 D5 E5 G5 C5 G5 D5 C5
PM--| PM--| PM--| PM--|
|-3-| |-3-| |-3-| |-3-|
E E E Q Q Q E E E Q E E E Q E E E Q Q Q Q Q Q Q
|----------------|-------------------|-----------------|--------------||
|----------------|-------------------|-----------------|-------------o||
|----------------|-------------------|-----------------|--------------||
|-------9--5--7--|-------9--------9--|-------9--12--9--|-5-----7--5---||
|-------7--3--5--|-------7--------7--|-------7--10--7--|-3--5--5--3--o||
|-0-0-0----------|-0-0-0----0-0-0----|-0-0-0-----------|----3---------||


Chorus
E5 D5
W +H +Q E E W +H +Q E E
|----------|-----------------|----------|-----------------|
|----------|-----------------|----------|-----------------|
|-9--------|-(9)----(9)--9-9-|-7--------|-(7)----(7)--7-7-|
|-9--------|-(9)----(9)--9-9-|-7--------|-(7)----(7)--7-7-|
|-7--------|-(7)----(7)--7-7-|-5--------|-(5)----(5)--5-5-|
|----------|-----------------|----------|-----------------|


C5 B5
TP
W +H +Q E E W +H +Q Q
|----------|-----------------|----------|-------------------|
|----------|-----------------|----------|-------------------|
|-5--------|-(5)----(5)--5-5-|-4--------|-(4)----(4)--------|
|-5--------|-(5)----(5)--5-5-|-4--------|-(4)----(4)--\--|
|-3--------|-(3)----(3)--3-3-|-2--------|-(2)----(2)--\--|
|----------|-----------------|----------|-------------\--|


E5 D5
W +H +Q E E W +H +Q E E
|----------|-----------------|----------|-----------------|
|----------|-----------------|----------|-----------------|
|-9--------|-(9)----(9)--x-9-|-7--------|-(7)----(7)--x-7-|
|-9--------|-(9)----(9)--x-9-|-7--------|-(7)----(7)--x-7-|
|-7--------|-(7)----(7)--x-7-|-5--------|-(5)----(5)--x-5-|
|----------|-----------------|----------|-----------------|


C5 B5 C5 B5 G5
W +H +Q E E Q Q Q Q
|----------|-----------------|-------------||
|----------|-----------------|-------------||
|-5--------|-(5)----(5)--x-5-|-4--5--4-----||
|-5--------|-(5)----(5)--x-5-|-4--5--4--5--||
|-3--------|-(3)----(3)--x-3-|-2--3--2--5--||
|----------|-----------------|----------3--||


Interlude
N.C.
PM------------------------------------------------|
E E E E E E E E E E E E E E E E E E E E E E E E E E E E E E E E
||------------------|-----------------|-----------------|------------------|
||o-----------------|-----------------|-----------------|------------------|
||------------------|-----------------|-----------------|------------------|
||------------------|-----------------|-----------------|-------5-7p5------|
||o-7-5-7-5-7-5-7-5-|-7-5-7-5-7-5-5-5-|-7-5-7-5-7-5-5-5-|---5h7-------7p5--|
||--0---0---0---0---|-0---0---0---7---|-0---0---0---7---|-7----------------|


C5 G5 D5 C5
PM------------------------------|
E E E E E E E E E E E E E E E E Q Q Q Q
|-----------------|-----------------|--------------||
|-----------------|-----------------|-------------o||
|-----------------|-----------------|--------------||
|-----------------|-----------------|-5-----7--5---||
|-7-5-7-5-7-5-7-5-|-7-5-7-5-7-5-5-5-|-3--5--5--3--o||
|-0---0---0---0---|-0---0---0---7---|----3---------||


Verse
E5 D5
PM--| PM--| PM--| PM--| PM--|
|-3-| |-3-| |-3-| |-3-| |-3-|
E E E Q E E E Q E E E Q Q Q E E E Q E E E Q
||--------------------|----------------|--------------------|
||o-------------------|----------------|--------------------|
||--------------------|----------------|--------------------|
||--------9--------9--|-------9--7--7--|-------9--------9---|
||o-------7--------7--|-------7--5--5--|-------7--------7---|
||--0-0-0----0-0-0----|-0-0-0----------|-0-0-0----0-0-0-----|


C5 D5 E5 G5 E5 C5 G5 D5 C5
PM--| PM--| PM--| PM--|
|-3-| |-3-| |-3-| |-3-|
E E E Q Q Q E E E Q E E E Q E E E Q Q Q Q Q Q Q
|----------------|-------------------|-----------------|--------------||
|----------------|-------------------|-----------------|-------------o||
|----------------|-------------------|-----------------|--------------||
|-------9--5--7--|-------9--------9--|-------9--12--9--|-5-----7--5---||
|-------7--3--5--|-------7--------7--|-------7--10--7--|-3--5--5--3--o||
|-0-0-0----------|-0-0-0----0-0-0----|-0-0-0-----------|----3---------||


Chorus
E5 D5
W +H +Q E E W +H +Q E E
|----------|-----------------|----------|-----------------|
|----------|-----------------|----------|-----------------|
|-9--------|-(9)----(9)--9-9-|-7--------|-(7)----(7)--7-7-|
|-9--------|-(9)----(9)--9-9-|-7--------|-(7)----(7)--7-7-|
|-7--------|-(7)----(7)--7-7-|-5--------|-(5)----(5)--5-5-|
|----------|-----------------|----------|-----------------|


C5 B5
TP
W +H +Q E E W +H +Q Q
|----------|-----------------|----------|-------------------|
|----------|-----------------|----------|-------------------|
|-5--------|-(5)----(5)--5-5-|-4--------|-(4)----(4)--------|
|-5--------|-(5)----(5)--5-5-|-4--------|-(4)----(4)--\--|
|-3--------|-(3)----(3)--3-3-|-2--------|-(2)----(2)--\--|
|----------|-----------------|----------|-------------\--|


E5 D5
W +H +Q E E W +H +Q E E
|----------|-----------------|----------|-----------------|
|----------|-----------------|----------|-----------------|
|-9--------|-(9)----(9)--9-9-|-7--------|-(7)----(7)--x-7-|
|-9--------|-(9)----(9)--9-9-|-7--------|-(7)----(7)--x-7-|
|-7--------|-(7)----(7)--7-7-|-5--------|-(5)----(5)--x-5-|
|----------|-----------------|----------|-----------------|


C5 B5 C5 B5 G5
W +H +Q E E Q Q Q Q
|----------|-----------------|-------------||
|----------|-----------------|-------------||
|-5--------|-(5)----(5)--x-5-|-4--5--4-----||
|-5--------|-(5)----(5)--x-5-|-4--5--4--5--||
|-3--------|-(3)----(3)--x-3-|-2--3--2--5--||
|----------|-----------------|----------3--||


Interlude
N.C.
PM------------------------------------------------|
E E E E E E E E E E E E E E E E E E E E E E E E E E E E E E E E
||------------------|-----------------|-----------------|------------------|
||o-----------------|-----------------|-----------------|------------------|
||------------------|-----------------|-----------------|------------------|
||------------------|-----------------|-----------------|-------5-7p5------|
||o-7-5-7-5-7-5-7-5-|-7-5-7-5-7-5-5-5-|-7-5-7-5-7-5-5-5-|---5h7-------7p5--|
||--0---0---0---0---|-0---0---0---7---|-0---0---0---7---|-7----------------|


C5 G5 D5 C5
PM------------------------------|
E E E E E E E E E E E E E E E E Q Q Q Q
|-----------------|-----------------|--------------||
|-----------------|-----------------|-------------o||
|-----------------|-----------------|--------------||
|-----------------|-----------------|-5-----7--5---||
|-7-5-7-5-7-5-7-5-|-7-5-7-5-7-5-5-5-|-3--5--5--3--o||
|-0---0---0---0---|-0---0---0---7---|----3---------||


E5 N.C.
PM----------------------------------------|
|-3-| |-3-| |-3-| |-3-|
W E E E E E E E E E E 8x E E E E E E E E E E
|----------||-----------------------||---------------------|
|----------||o---------------------o||---------------------|
|----------||-----------------------||---------------------|
|-2--------||-----------------------||---------------------|
|-2--------||o---------------------o||---------------------|
|-0--------||--0-0-0-0-0-0-0-0-0-0--||-0-0-0-0-0-0-0-0-0-0-|


F5 E5 N.C. F5 E5
PM------| PM----------------------------|
|-3-| |-3-| |-3-| |-3-|
E E E E E S E. Q E E E E E E E E E E E E E E E S E. Q
|--------------------||----------------------|--------------------|
|--------------------||o---------------------|--------------------|
|-----------10s9--9--||----------------------|-----------10s9--9--|
|-----------10s9--9--||----------------------|-----------10s9--9--|
|------------8s7--7--||o---------------------|------------8s7--7--|
|-0-0-0-0-0----------||--0-0-0-0-0-0-0-0-0-0-|-0-0-0-0-0----------|


F5
PM----------------------------|
|-3-| |-3-| |-3-|
E E E E E E E E E E E E E E E H 4x
|---------------------|------------------||
|---------------------|-----------------o||
|---------------------|-----------10-----||
|---------------------|-----------10-----||
|---------------------|------------8----o||
|-0-0-0-0-0-0-0-0-0-0-|-0-0-0-0-0--------||


Slower Q=147(8=s8)
N.C.
|-3-| |-3-| |-3-| |-3-| |-3-| |-3-| |-3-| |-3-|
E E E E E E E E E E E E E E E E E E E E E E E E
|-------------------------|--------------------------||
|-------------------------|--------------------------||
|-------------------------|--------------------------||
|-------------------------|--------------------------||
|-7-5---5-----------------|-7-5---5------------------||
|-----7---7-6-5-3-5-0-3-5-|-----7---7-6-5-3-5-0-3-5--||


PM PM PM----|
E E E E E E E E E E E E E E E E E E E E E E 3x
|-----------||-------------------------------------||
|-----------||o-----------------------------------o||
|-----------||-------------------------------------||
|-5---6---7-||----------3-2-0-2-------5---6---7----||
|-3---4---5-||o-----0-2---------------3---4---5---o||
|---0---0---||--0-0-------------0-0-0---0---0---0--||


E E E E E E E E E E E E E E E E E E E E 10x
|-||-------------------------------------------||--|
|-||o-----------------------------------------o||--|
|-||------4---------2---------4---------2------||--|
|-||--------2---------2---------2---------2----||--|
|-||o-2-2-----2-5-5-----2-3-3-----3-2-2-----2-o||--|
|-||-------------------------------------------||--|


Fast Rock Q=217(8=s8)
N.C.
PM------------------------------------------------|
E E E E E E E E E E E E E E E E E E E E E E E E E E E E E E E E
||------------------|-----------------|-----------------|------------------|
||o-----------------|-----------------|-----------------|------------------|
||------------------|-----------------|-----------------|------------------|
||------------------|-----------------|-----------------|-------5-7p5------|
||o-7-5-7-5-7-5-7-5-|-7-5-7-5-7-5-5-5-|-7-5-7-5-7-5-5-5-|---5h7-------7p5--|
||--0---0---0---0---|-0---0---0---7---|-0---0---0---7---|-7----------------|


C5 G5 D5 C5
PM------------------------------|
E E E E E E E E E E E E E E E E Q Q Q Q
|-----------------|-----------------|--------------||
|-----------------|-----------------|-------------o||
|-----------------|-----------------|--------------||
|-----------------|-----------------|-5-----7--5---||
|-7-5-7-5-7-5-7-5-|-7-5-7-5-7-5-5-5-|-3--5--5--3--o||
|-0---0---0---0---|-0---0---0---7---|----3---------||


Verse
E5 D5 E5
PM--| PM--| PM--| PM--| PM--|
|-3-| |-3-| |-3-| |-3-| |-3-|
E E E Q E E E Q E E E Q Q Q E E E Q E E E Q
||--------------------|----------------|--------------------|
||o-------------------|----------------|--------------------|
||--------------------|----------------|--------------------|
||--------9--------9--|-------9--7--7--|-------9--------9---|
||o-------7--------7--|-------7--5--5--|-------7--------7---|
||--0-0-0----0-0-0----|-0-0-0----------|-0-0-0----0-0-0-----|


C5 D5 E5 G5 E5 C5 G5 D5 C5
PM--| PM--| PM--| PM--|
|-3-| |-3-| |-3-| |-3-|
E E E Q Q Q E E E Q E E E Q E E E Q Q Q Q Q Q Q
|----------------|-------------------|-----------------|--------------||
|----------------|-------------------|-----------------|-------------o||
|----------------|-------------------|-----------------|--------------||
|-------9--5--7--|-------9--------9--|-------9--12--9--|-5-----7--5---||
|-------7--3--5--|-------7--------7--|-------7--10--7--|-3--5--5--3--o||
|-0-0-0----------|-0-0-0----0-0-0----|-0-0-0-----------|----3---------||


Chorus
E5 D5
W +H +Q E E W +H +Q E E
|----------|-----------------|----------|-----------------|
|----------|-----------------|----------|-----------------|
|-9--------|-(9)----(9)--9-9-|-7--------|-(7)----(7)--7-7-|
|-9--------|-(9)----(9)--9-9-|-7--------|-(7)----(7)--7-7-|
|-7--------|-(7)----(7)--7-7-|-5--------|-(5)----(5)--5-5-|
|----------|-----------------|----------|-----------------|


C5 B5
TP
W +H +Q E E W +H +Q Q
|----------|-----------------|----------|-------------------|
|----------|-----------------|----------|-------------------|
|-5--------|-(5)----(5)--5-5-|-4--------|-(4)----(4)--------|
|-5--------|-(5)----(5)--5-5-|-4--------|-(4)----(4)--\--|
|-3--------|-(3)----(3)--3-3-|-2--------|-(2)----(2)--\--|
|----------|-----------------|----------|-------------\--|


E5 D5
W +H +Q E E W +H +Q E E
|----------|-----------------|----------|-----------------|
|----------|-----------------|----------|-----------------|
|-9--------|-(9)----(9)--9-9-|-7--------|-(7)----(7)--7-7-|
|-9--------|-(9)----(9)--9-9-|-7--------|-(7)----(7)--7-7-|
|-7--------|-(7)----(7)--7-7-|-5--------|-(5)----(5)--5-5-|
|----------|-----------------|----------|-----------------|


C5 B5 C5 B5 G5
W +H +Q E E Q Q Q Q
|----------|-----------------|-------------||
|----------|-----------------|-------------||
|-5--------|-(5)----(5)--5-5-|-4--5--4-----||
|-5--------|-(5)----(5)--5-5-|-4--5--4--5--||
|-3--------|-(3)----(3)--3-3-|-2--3--2--5--||
|----------|-----------------|----------3--||


Interlude
N.C.
PM------------------------------------------------|
E E E E E E E E E E E E E E E E E E E E E E E E E E E E E E E E
||------------------|-----------------|-----------------|------------------|
||o-----------------|-----------------|-----------------|------------------|
||------------------|-----------------|-----------------|------------------|
||------------------|-----------------|-----------------|-------5-7p5------|
||o-7-5-7-5-7-5-7-5-|-7-5-7-5-7-5-5-5-|-7-5-7-5-7-5-5-5-|---5h7-------7p5--|
||--0---0---0---0---|-0---0---0---7---|-0---0---0---7---|-7----------------|


C5 G5 D5 C5
PM------------------------------|
E E E E E E E E E E E E E E E E Q Q Q Q
|-----------------|-----------------|--------------||
|-----------------|-----------------|-------------o||
|-----------------|-----------------|--------------||
|-----------------|-----------------|-5-----7--5---||
|-7-5-7-5-7-5-7-5-|-7-5-7-5-7-5-5-5-|-3--5--5--3--o||
|-0---0---0---0---|-0---0---0---7---|----3---------||


F5 E5
PM----------------------------|
|-3-| |-3-| |-3-|
E E E E E E E E E E E E E E E S E. Q
||----------------------|--------------------|
||o---------------------|--------------------|
||----------------------|-----------10s9--9--|
||----------------------|-----------10s9--9--|
||o---------------------|------------8s7--7--|
||--0-0-0-0-0-0-0-0-0-0-|-0-0-0-0-0----------|


F5
PM----------------------------|
|-3-| |-3-| |-3-|
E E E E E E E E E E E E E E E H 4x
|---------------------|------------------||
|---------------------|-----------------o||
|---------------------|-----------10-----||
|---------------------|-----------10-----||
|---------------------|------------8----o||
|-0-0-0-0-0-0-0-0-0-0-|-0-0-0-0-0--------||


Guitar Solo
F5 E5
Gtr I
PM------------------------------------------|
|-3--| |-3--| |-3--|
E E E E E E E E E E E E E E E S E. Q
|-------------------------------|------------------------------|
|-------------------------------|------------------------------|
|-------------------------------|----------------10s9-----9----|
|-------------------------------|----------------10s9-----9----|
|-------------------------------|-----------------8s7-----7----|
|--0-0----0--0-0--0-0----0--0-0-|--0-0----0--0-0---------------|
|
| Gtr III
| |----3----| |----3----| |----3----| |----3-----|
| Q Q Q Q Q Q Q Q Q Q Q Q
|-------------------------------|---------------------------14-|
|-------------------------------|-----------14---------13------|
|--------------------------14---|------13--------12------------|
|-----------14--------13--------|-12---------------------------|
|------13--------12-------------|------------------------------|
|-12----------------------------|------------------------------|


PM--------------------------------------
|--3--| |--3--|
E E E E E E E E E E
|-----------------------------------------|
|-----------------------------------------|
|-----------------------------------------|
|-----------------------------------------|
|-----------------------------------------|
|--0----0-----0--0--0--0----0-----0--0--0-|
|
| |---3---| |--3--| |---3---| |--3--|
| E E E E E E E E E E E E
|-15p12------15h17-12-15p12---------------|
|---------15------------------15h17-12h15-|
|-----------------------------------------|
|-----------------------------------------|
|-----------------------------------------|
|-----------------------------------------|


F5
------------------|
|--3--|
E E E E E H
|----------------------------------------|
|----------------------------------------|
|---------------------10-----------------|
|---------------------10-----------------|
|----------------------8-----------------|
|--0----0-----0--0--0--------------------|
|
| |---3---| |--3--| |--3--| |--3--|
| E E E E E E E E E E E E
|-12h15p==12-15h17-12h15p12----------12--|
|---------------------------15-17p12-----|
|----------------------------------------|
|----------------------------------------|
|----------------------------------------|
|----------------------------------------|


PM--------------------------------------
|--3--| |--3--|
E E E E E E E E E E
|-----------------------------------------|
|-----------------------------------------|
|-----------------------------------------|
|-----------------------------------------|
|-----------------------------------------|
|--0----0-----0--0--0--0----0-----0--0--0-|
|
| |---3---| |--3--| |---3---| |--3--|
| E E E E E E E E E E E E
|-15p12---15h17-15p12---------------------|
|---------------------17p15p==12-17p15p12-|
|-----------------------------------------|
|-----------------------------------------|
|-----------------------------------------|
|-----------------------------------------|


F5 E5
------------------|
|--3--|
E E E E E S E. Q
|------------------------------------------|
|------------------------------------------|
|---------------------10s9---------9-------|
|---------------------10s9---------9-------|
|----------------------8s7---------7-------|
|--0----0-----0--0--0----------------------|
|
| |---3---| |--3--| |---3----| |--3--|
| E E E E E E E E E E E E
|------------------------------------------|
|-15h17---15p12----------------------------|
|---------------16p15-15p===14p12----12h14-|
|---------------------------------14-------|
|------------------------------------------|
|------------------------------------------|


PM--------------------------------------
|--3--| |--3--|
E E E E E E E E E E
|-----------------------------------------|
|-----------------------------------------|
|-----------------------------------------|
|-----------------------------------------|
|-----------------------------------------|
|--0----0-----0--0--0--0----0-----0--0--0-|
|
| |---3---| |--3--| |---3---| |--3--|
| E E E E E E E E E E E E
|-----------------------------------------|
|---------15p12---------------------------|
|-15h16---------16p15-14p12---14h15-14p12-|
|-----------------------------------------|
|-----------------------------------------|
|-----------------------------------------|


F5
------------------|
|--3--|
E E E E E H
|----------------------------------------|
|----------------------------------------|
|---------------------10-----------------|
|---------------------10-----------------|
|----------------------8-----------------|
|--0----0-----0--0--0--------------------|
|
| |---3---| |--3--| |--3--| |--3--|
| E E E E E E E E E E E E
|----------------------------------------|
|----------------------------------------|
|----12----------------------------------|
|-14------14p13p12-14p13p12--------------|
|---------------------------14p13p12-13--|
|----------------------------------------|


F5 E5
PM-----------------------------------------------|
|--3--| |--3--| |--3--|
E E E E E E E E E E E E E E E S E. Q
|-----------------------------------|------------------------------------|
|-----------------------------------|------------------------------------|
|-----------------------------------|------------------10s===9---9-------|
|-----------------------------------|------------------10s===9---9-------|
|-----------------------------------|-------------------8s===7---7-------|
|--0----0--0--0--0--0----0--0--0--0-|--0----0--0--0--0-------------------|
|
| |--3--| |--3--| |--3--| |--3--|
| Q E E E Q E E E Q E E E Q E E E
|---------12---------------12-------|---------12----------------12-------|
|------------15p12------------15p12-|------------15p12-------------15p12-|
|-14b16------------14b16------------|-14b16------------14b16-------------|
|-----------------------------------|------------------------------------|
|-----------------------------------|------------------------------------|
|-----------------------------------|------------------------------------|


F5
PM-----------------------------------------------|
|--3--| |--3--| |--3--|
E E E E E E E E E E E E E E E H
|-----------------------------------|------------------------------|
|-----------------------------------|------------------------------|
|-----------------------------------|------------------10----------|
|-----------------------------------|------------------10----------|
|-----------------------------------|-------------------8----------|
|--0----0--0--0--0--0----0--0--0--0-|--0----0--0--0--0-------------|
|
| |--3--| |--3--| |--3--|
| Q E E E Q E E E Q E E E E E E E
|---------12---------------12-------|---------12-------------------|
|------------15p12------------15p12-|------------15p12-------------|
|-14b16------------14b16------------|-14b16------------15p12-14p12-|
|-----------------------------------|------------------------------|
|-----------------------------------|------------------------------|
|-----------------------------------|------------------------------|


PM--------------------------------------
|--3--| |--3--|
E E E E E E E E E E
|-----------------------------------------|
|-----------------------------------------|
|-----------------------------------------|
|-----------------------------------------|
|-----------------------------------------|
|--0----0-----0--0--0--0----0-----0--0--0-|
|
| |---3---| |--3--| |---3---| |--3--|
| E E E E E E E E E E E E
|-----------------------------------------|
|---------------------12------------------|
|----12h==14-12h14-15----12h==14-15p14p12-|
|-14--------------------------------------|
|-----------------------------------------|
|-----------------------------------------|


F5 E5
------------------|
|--3--|
E E E E E S E. Q
|----------------------------------------|
|----------------------------------------|
|---------------------10s9---------9-----|
|---------------------10s9---------9-----|
|----------------------8s7---------7-----|
|--0----0-----0--0--0--------------------|
|
| |---3---| |--3--| |---3----|
| E E E E E E E E E E E
|----------------------------------------|
|----------------------------------------|
|----------------------------------------|
|-14p12------12h14-14-14p===12----12-----|
|---------14-------------------14----14--|
|----------------------------------------|


F5
PM-------------------------------------------------|
|--3--| |-3-| |--3--|
E E E E E E E E E E E E E E E H
|----------------------------------|---------------------------------------|
|----------------------------------|---------------------------------------|
|----------------------------------|---------------------10----------------|
|----------------------------------|---------------------10----------------|
|----------------------------------|----------------------8----------------|
|--0----0-----0--0--0--0--0--0-0-0-|--0----0-----0--0--0-------------------|
|
| TP TP TP TP TP TP TP TP TP
| |---3---| |--3--| |---3---| |--3--| |--3--| |--3--|
| E E E E E E E Q. E E E E E E E E E E E E
|----------------------------------|-24p22---19-19-19-19-24p22-19-19-19-19-|
|----------------------------------|---------------------------------------|
|----------------------------------|---------------------------------------|
|----------------------------------|---------------------------------------|
|-13p12---13h14p13-12--------------|---------------------------------------|
|---------------------15-12\-------|---------------------------------------|


PM---------------------------------------
|--3--| |--3---|
E E E E E E E E E E
|------------------------------------------|
|------------------------------------------|
|------------------------------------------|
|------------------------------------------|
|------------------------------------------|
|--0----0-----0--0--0--0----0-----0----0-0-|
|
| TP TP TP TP TP
| |---3---| |--3--| |---3---|
| E E E E E E E E E Q
|-24p22---19-19-19-19-24p22---19-----------|
|--------------------------------22b24-----|
|------------------------------------------|
|------------------------------------------|
|------------------------------------------|
|------------------------------------------|


F5 E5
--------------------|
|--3---|
E E E E E S E. Q
|-------------------------------------------|
|-------------------------------------------|
|----------------------10s9---------9-------|
|----------------------10s9---------9-------|
|-----------------------8s7---------7-------|
|--0----0-----0----0-0----------------------|
|
| TP
| |---3---| |---3----| |--3--|
| E E E Q E E E E E E
|-19-22---24-----------19----22-24p22-19-19-|
|------------22b24--------------------------|
|-------------------------------------------|
|-------------------------------------------|
|-------------------------------------------|
|-------------------------------------------|


F5
PM---------------------------------------------------|
|--3---| |--3--| |--3---|
E E E E E E E E E E E E E E E H
|-------------------------------------|-----------------------------------|
|-------------------------------------|-----------------------------------|
|-------------------------------------|-------------------10--------------|
|-------------------------------------|-------------------10--------------|
|-------------------------------------|--------------------8--------------|
|--0----0-----0----0-0--0--0--0--0--0-|--0----0--0-0----0-----------------|
|
| |---3---| |--3--| |--3--|
| E E E Q E E E E E Q E E E E E Q
|-24p22---19-----------19h22-24p22-19-|---------19h==22---24p22-19--------|
|------------22b24--------------------|-22b24----------------------22b24--|
|-------------------------------------|-----------------------------------|
|-------------------------------------|-----------------------------------|
|-------------------------------------|-----------------------------------|
|-------------------------------------|-----------------------------------|


F5 E5
PM----------------------------------------------------|
|--3---| |--3---| |--3--|
E E E E E E E E E E E E E E E S E. Q
|----------------------------------------|-----------------------------------------|
|----------------------------------------|-----------------------------------------|
|----------------------------------------|------------------10s9---------9---------|
|----------------------------------------|------------------10s9---------9---------|
|----------------------------------------|-------------------8s7---------7---------|
|--0----0-----0-0----0--0----0--0-0----0-|--0----0--0--0--0------------------------|
|
| |---3---| |--3--| |---3----| |--3--|
| E E E E E Q E E Q E E E E E E E E E
|-19-19---24p22---19-----------19h==22---|---------15p12----12h===15p12-15p12-12---|
|----------------------22b24-------------|-17b19---------12------------------------|
|----------------------------------------|-----------------------------------------|
|----------------------------------------|-----------------------------------------|
|----------------------------------------|-----------------------------------------|
|----------------------------------------|-----------------------------------------|


PM--------------------------------------
|--3--| |--3--|
E E E E E E E E E E
|-----------------------------------------|
|-----------------------------------------|
|-----------------------------------------|
|-----------------------------------------|
|-----------------------------------------|
|--0----0-----0--0--0--0----0-----0--0--0-|
|
| |---3---| |--3--| |---3---| |--3--|
| E E E E E E E E E E E E
|-15p12---12-12h15p12-17p12------12h17p12-|
|-----------------------------15----------|
|-----------------------------------------|
|-----------------------------------------|
|-----------------------------------------|
|-----------------------------------------|


F5
------------------|
|--3--|
E E E E E H
|----------------------------------------|
|----------------------------------------|
|---------------------10-----------------|
|---------------------10-----------------|
|----------------------8-----------------|
|--0----0-----0--0--0--------------------|
|
| |---3---| |--3--| |--3--| |--3--|
| E E E E E E E E E E E E
|-15p12----------------------------------|
|---------15p12----15p12-15p12-------15--|
|---------------15-------------15p14-----|
|----------------------------------------|
|----------------------------------------|
|----------------------------------------|


PM--------------------------------------
|--3--| |--3--|
E E E E E E E E E E
|-----------------------------------------|
|-----------------------------------------|
|-----------------------------------------|
|-----------------------------------------|
|-----------------------------------------|
|--0----0-----0--0--0--0----0-----0--0--0-|
|
| |---3---| |--3--| |---3---| |--3--|
| E E E E E E E E E E E E
|-----------------------------------------|
|-12h15p==12----12h15p12-17p==12----12-17p|
|------------15------------------15-------|
|-----------------------------------------|
|-----------------------------------------|
|-----------------------------------------|


F5 E5
------------------|
|--3--|
E E E E E S E. Q
|------------------------------------------|
|------------------------------------------|
|---------------------10s9---------9-------|
|---------------------10s9---------9-------|
|----------------------8s7---------7-------|
|--0----0-----0--0--0----------------------|
|
| |---3---| |--3--| |---3----| |--3--|
| E E E E E E E E E E E E
|------------------------------------------|
|-12------12h15p12-17p12-------12-17p12-15-|
|----15---------------------15-------------|
|------------------------------------------|
|------------------------------------------|
|------------------------------------------|


PM--------------------------------------
|--3--| |--3--|
E E E E E E E E E E
|-----------------------------------------|
|-----------------------------------------|
|-----------------------------------------|
|-----------------------------------------|
|-----------------------------------------|
|--0----0-----0--0--0--0----0-----0--0--0-|
|
| |---3---| |--3--| |---3---| |--3--|
| E E E E E E E E E E E E
|---------------------12-12---15p12-15p12-|
|-12------15p12-12h15---------------------|
|----15-----------------------------------|
|-----------------------------------------|
|-----------------------------------------|
|-----------------------------------------|


F5
------------------|
|--3--|
E E E E E H
|----------------------------------------|
|----------------------------------------|
|---------------------10-----------------|
|---------------------10-----------------|
|----------------------8-----------------|
|--0----0-----0--0--0--------------------|
|
| |---3---| |--3--| |--3--| |--3--|
| E E E E E E E E E E E E
|-17p15---12h18-------13h15-17h18-17p15--|
|---------------15s17--------------------|
|----------------------------------------|
|----------------------------------------|
|----------------------------------------|
|----------------------------------------|


PM---------------------------------------
|--3--| |--3---|
E E E E E E E E E E
|------------------------------------------|
|------------------------------------------|
|------------------------------------------|
|------------------------------------------|
|------------------------------------------|
|--0----0-----0--0--0--0----0-----0----0-0-|
|
| |---3---| |--3--| |---3---|
| E E E E E E E E E Q
|-15-17---15----17-18-20-18---17-----------|
|------------15------------------20b22-----|
|------------------------------------------|
|------------------------------------------|
|------------------------------------------|
|------------------------------------------|


F5 E5
-----------------|
|--3--|
E E E E E S E. Q
|---------------------------------------|
|---------------------------------------|
|--------------------10s9---------9-----|
|--------------------10s9---------9-----|
|---------------------8s7---------7-----|
|-0----0-----0--0--0--------------------|
|
| |---3---| |--3--| |---3----|
| E E E E E E E E E E E
|-x------------20h22-20p===18----18h22--|
|---17---20p18----------------20--------|
|---------------------------------------|
|---------------------------------------|
|---------------------------------------|
|---------------------------------------|


PM-----------------------------------
|--3--| |--3--|
E E E E E E E E E E
|--------------------------------------|
|--------------------------------------|
|--------------------------------------|
|--------------------------------------|
|--------------------------------------|
|--0----0--0--0--0--0----0-----0--0--0-|
|
| |--3--| |---3---| |--3--|
| Q E E E E E E E E E
|-22b24---20p18p17-17p15p==12----------|
|-----------------------------17p15p12-|
|--------------------------------------|
|--------------------------------------|
|--------------------------------------|
|--------------------------------------|


F5
------------------|
|--3--|
E E E E E H
|------------------------------------------||
|------------------------------------------||
|---------------------10-------------------||
|---------------------10-------------------||
|----------------------8-------------------||
|--0----0-----0--0--0----------------------||
|
| |---3---| |--3--| |--3--|
| E E E E E E E E E E +E
|-17p15p==12-------------------------------||
|------------17p15p12----------16b18r(16)\-||
|---------------------15p14p12-------------||
|------------------------------------------||
|------------------------------------------||
|------------------------------------------||


N.C.
Gtrs I, II
PM------------------------------------------------|
E E E E E E E E E E E E E E E E E E E E E E E E E E E E E E E E
|-----------------|-----------------|-----------------|-----------------|
|-----------------|-----------------|-----------------|-----------------|
|-----------------|-----------------|-----------------|-----------------|
|-----------------|-----------------|-----------------|-------5-7p5-----|
|-7-5-7-5-7-5-7-5-|-7-5-7-5-7-5-5-5-|-7-5-7-5-7-5-7-5-|---5h7-------7p5-|
|-0---0---0---0---|-0---0---0---7---|-0---0---0---0---|-7---------------|


C5 G5 D5 C5 E5
PM------------------------------|
E E E E E E E E E E E E E E E E Q Q Q Q q Q H
|-----------------|-----------------|-------------|------------*|
|-----------------|-----------------|-------------|------------*|
|-----------------|-----------------|-------------|------------*|
|-----------------|-----------------|-5-----7--5--|------------*|
|-7-5-7-5-7-5-7-5-|-7-5-7-5-7-5-5-5-|-3--5--5--3--|-2----------*|
|-0---0---0---0---|-0---0---0---7---|----3--------|-0----------*|


Duration Legend
---------------
W - whole; H - half; Q - quarter; E - 8th; S - 16th; T - 32nd; X - 64th; a - acciaccatura
+ - note tied to previous; . - note dotted; .. - note double dotted
Uncapitalized letters represent notes that are staccato (1/2 duration)
Irregular groupings are notated above the duration line
Duration letters will always appear directly above the note/fret number it represents the
duration for. Duration letters with no fret number below them represent rests. Multi-
bar rests are notated in the form Wxn, where n is the number of bars to rest for. Low
melody durations appear below the staff

Tablature Legend
----------------
h - hammer-on
p - pull-off
b - bend
pb - pre-bend
r - bend release (if no number after the r, then release immediately)
/\ - slide into or out of (from/to "nowhere")
s - legato slide
S - shift slide
- natural harmonic
[n] - artificial harmonic
n(n) - tapped harmonic
~ - vibrato
tr - trill
T - tap
TP - trem. picking
PM - palm muting
\n/ - tremolo bar dip; n = amount to dip
\n - tremolo bar down
n/ - tremolo bar up
/n\ - tremolo bar inverted dip
= - hold bend; also acts as connecting device for hammers/pulls
- volume swell (louder/softer)
x - on rhythm slash represents muted slash
o - on rhythm slash represents single note slash

Misc Legend
-----------
| - bar
|| - double bar
||o - repeat start
o|| - repeat end
*| - double bar (ending)
: - bar (freetime)
$ - Segno
& - Coda
Tempo markers - = BPM(8/16=s8/s16), where s8 = swing 8ths, s16 = swing 16ths


***************************************************************************************
* Generated using Power Tab Editor by Brad Larsen - http://powertab.guitarnetwork.org *
***************************************************************************************

Like us on Facebook.....
-> Loading Time :0.0472 sec