The Getaway Tabs & Lyrics by Ten Foot Pole

The Getaway

guitar tabs lyrics

Ten Foot Pole

Album : Insider punk rock PlayStop


Title: The Getaway
Artist: Ten Foot Pole

INTRO:
e|-----------------------| -+
B|-----------------------| |
G|-----------------------| |
D|--6-x-x-x-x-4-7-7------| |- 6x
A|--6-x-x-x-x-4-7-7------| |
E|--4-x-x-x-x-2-5-5------| -+



VERSE:
Please don't chase...
e|------------------------------------------------------------------------------|
B|------------------------------------------------------------------------------|
G|--9-9-9-9-----------6-6-6-6---------------------------------------------------|
D|--9-9-9-9--9-9-9-9--6-6-6-6--6-6-6-6--7-7-7-7-7-7-7-7--4-4-4-4-4-4--7--9------|
A|--7-7-7-7--9-9-9-9--4-4-4-4--6-6-6-6--7-7-7-7-7-7-7-7--4-4-4-4-4-4--7--9------|
E|-----------7-7-7-7-----------4-4-4-4--5-5-5-5-5-5-5-5--2-2-2-2-2-2--5--7------|

People watch this...
e|--------------------------------------------------------------------------------|
B|--------------------------------------------------------------------------------|
G|--9-9-9-9-----------6-6-6-6-----------------------------------------------------|
D|--9-9-9-9--9-9-9-9--6-6-6-6--6-6-6-6--7-7-7-7--2-2-2-2--4-4-4-4--7-7--7--9------|
A|--7-7-7-7--9-9-9-9--4-4-4-4--6-6-6-6--7-7-7-7--2-2-2-2--4-4-4-4--7-7--7--9------|
E|-----------7-7-7-7-----------4-4-4-4--5-5-5-5--0-0-0-0--2-2-2-2--5-5--5--7------|
|__________________________________Palm Muted__________________________________|

Never thought...
e|------------------------------------------------------------------------------|
B|------------------------------------------------------------------------------|
G|--9-9-9-9-----------6-6-6-6---------------------------------------------------|
D|--9-9-9-9--9-9-9-9--6-6-6-6--6-6-6-6--7-7-7-7-7-7-7-7--4-4-4-4-4-4--7--9------|
A|--7-7-7-7--9-9-9-9--4-4-4-4--6-6-6-6--7-7-7-7-7-7-7-7--4-4-4-4-4-4--7--9------|
E|-----------7-7-7-7-----------4-4-4-4--5-5-5-5-5-5-5-5--2-2-2-2-2-2--5--7------|
|____________Palm Muted_____________|


CHORUS:
e|------------------------------------------| -+
B|------------------------------------------| |
G|--------------------2-2-2-2--4-4-4-4------| |
D|--2-2-2-2--4-4-4-4--2-2-2-2--4-4-4-4------| |- 3x
A|--2-2-2-2--4-4-4-4--0-0-0-0--2-2-2-2------| |
E|--0-0-0-0--2-2-2-2------------------------| -+

e|--------------------------------------------------------------------------|
B|--------------------------------------------------------------------------|
G|--------------------14-14-14-14-14-14-14-14--16-16-16-16-16-16-16-16------|
D|--2-2-2-2--4-4-4-4--14-14-14-14-14-14-14-14--16-16-16-16-16-16-16-16------|
A|--2-2-2-2--4-4-4-4--12-12-12-12-12-12-12-12--14-14-14-14-14-14-14-14------|
E|--0-0-0-0--2-2-2-2--------------------------------------------------------|


VERSE:
Today my future...
e|------------------------------------------------------------------------------|
B|------------------------------------------------------------------------------|
G|--9-9-9-9-----------6-6-6-6---------------------------------------------------|
D|--9-9-9-9--9-9-9-9--6-6-6-6--6-6-6-6--7-7-7-7-7-7-7-7--4-4-4-4-4-4--7--9------|
A|--7-7-7-7--9-9-9-9--4-4-4-4--6-6-6-6--7-7-7-7-7-7-7-7--4-4-4-4-4-4--7--9------|
E|-----------7-7-7-7-----------4-4-4-4--5-5-5-5-5-5-5-5--2-2-2-2-2-2--5--7------|
|_______________________________Palm Muted_______________________________|

So I ran...
e|------------------------------------------------------------------------------|
B|------------------------------------------------------------------------------|
G|--9-9-9-9-----------6-6-6-6---------------------------------------------------|
D|--9-9-9-9--9-9-9-9--6-6-6-6--6-6-6-6--7-7-7-7-7-7-7-7--4-4-4-4-4-4--7--9------|
A|--7-7-7-7--9-9-9-9--4-4-4-4--6-6-6-6--7-7-7-7-7-7-7-7--4-4-4-4-4-4--7--9------|
E|-----------7-7-7-7-----------4-4-4-4--5-5-5-5-5-5-5-5--2-2-2-2-2-2--5--7------|
|____________Palm Muted_____________|

e|-----------------------| -+
B|-----------------------| |
G|-----------------------| |
D|--6-x-x-x-x-4-7-7------| |- 2x
A|--6-x-x-x-x-4-7-7------| |
E|--4-x-x-x-x-2-5-5------| -+


CHORUS:
e|------------------------------------------| -+
B|------------------------------------------| |
G|--------------------2-2-2-2--4-4-4-4------| |
D|--2-2-2-2--4-4-4-4--2-2-2-2--4-4-4-4------| |- 3x
A|--2-2-2-2--4-4-4-4--0-0-0-0--2-2-2-2------| |
E|--0-0-0-0--2-2-2-2------------------------| -+

e|-----------------------------------------------------------------------------|
B|-----------------------------------------------------------------------------|
G|--------------------14-14-14-14-14-14-14-14--16-16-16-16-16-16-16-16--9------|
D|--2-2-2-2--4-4-4-4--14-14-14-14-14-14-14-14--16-16-16-16-16-16-16-16--9------|
A|--2-2-2-2--4-4-4-4--12-12-12-12-12-12-12-12--14-14-14-14-14-14-14-14--7------|
E|--0-0-0-0--2-2-2-2-----------------------------------------------------------|


INTERMEZZO:
e|-------------------------------------------------------------------------------|
B|-------------------------------------------------------------------------------|
G|------------------------------------------------------------------------9------|
D|------------------------------------------------------------------------9------|
A|------------------------------------------------------------------------7------|
E|--0-0-0-0-0-0-0-0--2-2-2-2-2-2-2-2-2--4-4-4-4-4-4-4-4--5-5-5-5-5-5-5-5---------|
|___________________________Palm Muted__(2x)__________________________|

I always do...
e|-----------------------------------------------------------------------|
B|-----------------------------------------------------------------------|
G|------------------------9-9-9-9--11-11-11-11--14-14-14-14--14--16------|
D|---------------7-7-7-7--9-9-9-9--11-11-11-11--14-14-14-14--14--16------|
A|--11--9--7-----7-7-7-7--7-7-7-7---9--9--9--9--12-12-12-12--12--14------|
E|------------7--5-5-5-5-------------------------------------------------|


VERSE:
I always dreamed...
e|------------------------------------------------------------------------------|
B|------------------------------------------------------------------------------|
G|--9-9-9-9-----------6-6-6-6---------------------------------------------------|
D|--9-9-9-9--9-9-9-9--6-6-6-6--6-6-6-6--7-7-7-7-7-7-7-7--4-4-4-4-4-4--7--9------|
A|--7-7-7-7--9-9-9-9--4-4-4-4--6-6-6-6--7-7-7-7-7-7-7-7--4-4-4-4-2-2--7--9------|
E|-----------7-7-7-7-----------4-4-4-4--5-5-5-5-5-5-5-5--2-2-2-2-2-2--5--7------|


CHORUS:
e|------------------------------------------|
B|------------------------------------------|
G|--------------------2-2-2-2--4-4-4-4------|
D|--2-2-2-2--4-4-4-4--2-2-2-2--4-4-4-4------|
A|--2-2-2-2--4-4-4-4--0-0-0-0--2-2-2-2------|
E|--0-0-0-0--2-2-2-2------------------------|

e|-----------------------------------------|
B|-----------------------------------------|
G|--------------------2-2-2-2-2-2-2-2------|
D|--2-2-2-2--4-4-4-4--2-2-2-2-2-2-2-2------|
A|--2-2-2-2--4-4-4-4--0-0-0-0-0-0-0-0------|
E|--0-0-0-0--2-2-2-2-----------------------|

e|------------------------------------------| -+
B|------------------------------------------| |
G|--------------------2-2-2-2--4-4-4-4------| |
D|--2-2-2-2--4-4-4-4--2-2-2-2--4-4-4-4------| |- 3x
A|--2-2-2-2--4-4-4-4--0-0-0-0--2-2-2-2------| |
E|--0-0-0-0--2-2-2-2------------------------| -+

e|-----------------------------------------------------------------------------|
B|-----------------------------------------------------------------------------|
G|--------------------14-14-14-14-14-14-14-14--16-16-16-16-16-16-16-16--9------|
D|--2-2-2-2--4-4-4-4--14-14-14-14-14-14-14-14--16-16-16-16-16-16-16-16--9------|
A|--2-2-2-2--4-4-4-4--12-12-12-12-12-12-12-12--14-14-14-14-14-14-14-14--7------|
E|--0-0-0-0--2-2-2-2-----------------------------------------------------------|

Like us on Facebook.....
-> Loading Time :0.0540 sec