The Execution Protocol Tabs & Lyrics by God Dethroned

The Execution Protocol

guitar tabs lyrics

God Dethroned

Album : Bloody Blasphemy death metal PlayStop


God Dethroned- The Execution Protocol
from Bloody Blasphemy

version 1.0

by Nick Beato (entity@cfl.rr.com)
http://www.mp3.com/nickbeato

ok, i'm not sure about the tuning.
i didnt think they used dropped d but it doesnt make sense any other way!


so unless i figure it out, play in dropped d (DADGBE)

keyboard intro

A(m) C Bb A(m)

riff 1

gtr1
----------------------------------------------
----------------------------------------------
----------------------------------------------
-----7-9~~~--7/9\7~~~~~-----------------------
-0-7------------------------------------------
----------------------------------------------
gtr2
----------------------------------------------
----------------------------------------------
--------------------9\7-7\5-5\4-4/5-/9~~~~~~~-
----------------------------------------------
----------------------------------------------
----------------------------------------------

gtr1
----------------------------------------------------------
----------------------------------------------------------
----------------------------------------------------------
------7--9bh r(9)-7~~~~~---------------------------------
----7-----------------------------------------------------
-10-------------------------------------------------------
gtr2
----------------------------------------------------------
----------------------------------------------------------
------------------------10~~-9-10-12-10-9-10-12bf r-10~~~-
----------------------------------------------------------
----------------------------------------------------------
----------------------------------------------------------

gtr1
----------------------------------------------------------
----------------------------------------------------------
----------------------------------------------------------
-----8--7bh (7)r-----------------------------------------
---8--------------8-7~~~~~-bh r bh r----------------------
-8--------------------------------------------------------
gtr2
----------------------------------------------------------
----------------------------------------------------------
-----------------------10---12--10--10h12p10\9-7--7/9~~~~-
----------------------------------------------------------
----------------------------------------------------------
----------------------------------------------------------

not sure about the last part, sounds like 3 guitars....

gtr1
----------------------------------------------------------
----------------------------------------------------------
----------------------------------------------------------
---------7---9--10-9-7----9-7------7----------------------
-0---7-----------------10-----10-9---10-9-7-10-9-7-5-7~~~-
----------------------------------------------------------
gtr2
----------------------------------------------------------
----------------------------------------------------------
------------7-9-10-9-7----9-7------7----------------------
-----------------------10-----10-9---10-9-7-10-9-7-5-7~~~-
----------------------------------------------------------
----------------------------------------------------------

riff 2

the F might be an A (8th fret of 5th string might be open)

-------------------------------------------------------------------
-------------------------------------------------------------------
---------------------------9-9-------------------------------------
---------7-7-9-9-----10-10-----9-9---------------------------------
-0-0-7-7---------8-8----------------------------------------------
-----------------------------------7-7-7-5-5-5-3-3-3-2-2-2-0-0-2p0-

-------------------------------------------------------------------
-------------------------------------------------------------------
---------------------------9-9-------------------------------------
---------7-7-9-9-----10-10-----9-9---------------------------------
-0-0-7-7---------8-8----------------------------------------------
-----------------------------------7-7-7-5-5-5-8-8-8-7-7-7-5-5-7p5-

riff 3

-------------------------------------------------
-------------------------------------------------
--------------------9"---------------------------
-------7"-9"----10"----9"------------------------
-0"-7"-------8"----------------------------------
--------------------------7"--5"--3"--2"--0"-2"0"

-------------------------------------------------
-------------------------------------------------
--------------------9"---------------------------
-------7"-9"----10"----9"------------------------
-0"-7"-------8"----------------------------------
--------------------------7"--5"--8"--7"--5"-7"5"

riff 4

------------------------------------------------------------
--------------------------3/4 gradual bend------------------
--------------------------|---------------------------------
--------------------------|---------------------------------
--------------------------v-------------------------0---0---
-2---2-2-2p0-0---0-0-2p0-3b---r-2---2-2-2h3-0---0-0-5---3---
* * * * * * * *

------------------------------------------------------------
--------------------------3/4 gradual bend------------------
--------------------------|---------------------------------
--------------------------|---------------------------------
--------------------------v-----------------0-------0---1---
-2---2-2-2p0-0---0-0-2p0-3b---r-2---2-2-2h3-3---0-0-5---3---
* * * * * * * *

riff 5 (bit hard to make out, so it might be wrong)

palm mute and tremolo pick
-------------------------------------------------------------------
-------------------------------------------------------------------
-------------------------------------------------------------------
-------------------------------------------------------------------
-------------------------------------------------------------------
-7---3---6----2-0-7---3---9---5\3-7---3---6----2-0---2-3-7\6-3-2-3-

riff 6

pm all
-------------------------------------------------------------------
-------------------------------------------------------------------
-------------------------------------------------------------------
-------------------------------------------------------------------
-------------------------------------------------------------------
-222-222-7"----2-0-333-333-8"---\-5"----8"---7"-5"-------7"--------

riff 7

gtr2 chords
--------------------------------------
--------------------------------------
-2--------5--------3------------------
-2--------5--------3--------3---------
-0--------3--------1--------3---------
----------------------------3---------

gtr1
---------------------------------------
---------------------------------------
---------------------------------------
-----7-9~~~--7h9p7~~------7-9bh r-7~~-
-0-7--------------------7--------------
---------------------10----------------

------------------------------------------------
------------------------------------------------
-------------------|-random pinch harmonics--|--
-----8-7bh r------------------------------------
---8---------8-7---7-0-12-0-14-0-12\7-0-7-0-7/8-
-8----------------------------------------------
* * * * *

riff 8

play riff 1 with this progression

-------------------------
-------------------------
-2-----5-----3-----2-----
-2-----5-----3-----2-----
-0-----3-----1-----0-----
-------------------------

piano outro arranged for guitar
the bass notes are always the same but the melody adds lead ins and stuff.
this is the basic idea, anything like it should work

bass notes (left hand on piano)
-----------------------------------------------------------------
-----------------------------------------------------------------
-2-------2-------4-------5-------2-------2-------4-------5-------
-----2-------2-------2-------2-------2-------2-------2-------2---
-----------------------------------------------------------------
-----------------------------------------------------------------
melody notes (right hand)
-8-----------0---7-------8---------------8-------8---10--8-------
-------------------------------------10----------------------10--
-----------------------------------------------------------------
-----------------------------------------------------------------
-----------------------------------------------------------------
-----------------------------------------------------------------

bass notes (left hand on piano)
-----------------------------------------------------------------
-----------------------------------------------------------------
-5-------5-------7-------9-------5-------5-------7-------9-------
-----5-------5-------5-------5-------5-------5-------5-------5---
-----------------------------------------------------------------
-----------------------------------------------------------------
melody notes (right hand)
-8---------------10------12----------13-12-----------10--12------
---------------------------------10--------------13----------13--
-----------------------------------------------------------------
-----------------------------------------------------------------
-----------------------------------------------------------------
-----------------------------------------------------------------

bass notes (left hand on piano)
-----------------------------------------------------------------
-----------------------------------------------------------------
-3-------3-------5-------7-------3-------3-------5-------7-------
-----3-------3-------3-------3-------3-------3-------3-------3---
-----------------------------------------------------------------
-----------------------------------------------------------------
melody notes (right hand)
-13----------------------10--------------------------------------
-------------11--13--------------11--13------11--15------13--11--
-----------------------------------------------------------------
-----------------------------------------------------------------
-----------------------------------------------------------------
-----------------------------------------------------------------

bass notes (left hand on piano)
-----------------------------------------------------------------
-----------------------------------------------------------------
-2-------2-------4-------5-------2-------2-------4-------5-------
-----2-------2-------2-------2-------2-------2-------2-------2---
-----------------------------------------------------------------
-----------------------------------------------------------------
melody notes (right hand)
-8-----------0---7-------8-----------8---7----------7---8----7---
---------------------------------10-------------10---------------
-----------------------------------------------------------------
-----------------------------------------------------------------
-----------------------------------------------------------------
-----------------------------------------------------------------


structure
0:00 synth intro
0:27 riff 1 (1x)
0:50 riff 2 (1x)
0:59 riff 3 (2x)
1:16 riff 4 (2x)
1:35 riff 3 (2x)
1:52 riff 4 (2x)
2:11 riff 5 (2x)
2:21 riff 6 (2x)
2:30 riff 5 (2x)
2:40 riff 6 (2x)
2:49 riff 3 (2x)
3:07 riff 4 (2x)
3:25 riff 7 (4x)
4:03 riff 8&1 (4x) cross fade 3rd time
piano outro cross fades in during riff 8

please email any corrections or comments:
entity@cfl.rr.com

This file was downloaded from...
Musical Manifestations
(http://home.cfl.rr.com/xezlorir/mm)
if the link is not found, email: Xezlorir@hotmail.com

enjoy!

Like us on Facebook.....
-> Loading Time :0.0086 sec