The Doorway Tabs & Lyrics by Neurosis

The Doorway

guitar tabs lyrics

Neurosis

Album : Times of Grace post-metal PlayStop


The Doorway - Times of Grace - Neurosis
Guitar 1 - Scott Kelly tuning AADGBe Guitar 2 - Steve Von Till tuning AADGAd

Part 1
/Guitar 1
e-------------------------------------------------\
B-------------------------------------------------|
G-6-6-6-5-5-5-5-5--------5-5-5-5-5-5-5-5-5-5-5-5-5|
D-5-5-5-4-4-4-4-4--------4-4-4-4-4-4-4-4-4-4-4-4-4| x2
A-4-4-4-3-3-3-3-3--------3-3-3-3-3-3-3-3-3-3-3-3-3|

A------------------0-0-0-----0-0-0-0-0-0-0-0-0-0-0|
pm----- pm------------------/
d-------------------------------------------------\
A-------------------------------------------------|
G-6-6-6-5-5-5-5-5--------5-5-5-5-5-5-5-5-5-5-5-5-5| x2 Scott plays part 1
D-5-5-5-4-4-4-4-4--------4-4-4-4-4-4-4-4-4-4-4-4-4| once before Steve
A-4-4-4-3-3-3-3-3--------3-3-3-3-3-3-3-3-3-3-3-3-3| comes in.
A------------------0-0-0-----0-0-0-0-0-0-0-0-0-0-0/
\Guitar 2 pm----- pm-----------------
Part 1
/Guitar 1
e----------------------------------------|
B----------------------------------------|
G-6-6-6-5-5-5---8---8---8---8---8---8----|
D-5-5-5-4-4-4---7---7---7---7---7---7----|
A-4-4-4-3-3-3---6---6---6---6---6---6----|
A---------------0---0---0---0---0---0----|

d----------------------------------------|
A----------------------------------------|
G-6-6-6-5-5-5---8---8---8---8---8---8----|
D-5-5-5-4-4-4---7---7---7---7---7---7----|
A-4-4-4-3-3-3---6---6---6---6---6---6----|
A---------------0---0---0---0---0---0----|
\Guitar 2

Part 2
/Guitar 1
e---------------------|
B---------------------|
G---------------------|
D---------------------|
A-6----5----6----12---|
A-6----5----6----12---|

d---------------------|
A---9----9-----9----9-|
G---------------------|
D---6----6-----6----6-|
A-----------------0---|
A-6----5----6---------|
\Guitar 2

Part 3
/Guitar 1
e------------------------------ -----
B------------------------------ On the 4th -----
G------------------------------ and 5th open----- Both are Natural
D------------------------------ A you can ----- Harmonics
A-4--3--4--3-4-3p0-0-0-0-0-0-0- substitute -2-2-
A-4--3--4--3-4-3p0-0-0-0-0-0-0- this -2-2-
pm----------
d------------------------------|
A------------------------------|
G------------------------------|
D------------------------------|
A-4--3--4--3-4-3p0-0-0-0-0-0-0-|
A-4--3--4--3-4-3p0-0-0-0-0-0-0-|
\Guitar 2 pm----------

Part 4
/Guitar 1
e---------------------------------|
B---------------------------------|
G---------------------------------|
D---------------------------------|
A-0-0-0-0-0-0-0-0-1-0-1-0-1-0-6-5-|
A-0-0-0-0-0-0-0-0-1-0-1-0-1-0-6-5-|

d---------------------------------|
A---------------------------------|
G---------------------------------|
D---------------------------------|
A-0-0-0-0-0-0-0-0-1-0-1-0-1-0-6-5-|
A-0-0-0-0-0-0-0-0-1-0-1-0-1-0-6-5-|
\Guitar 2

Part 1 x5
Part 2 x4
Part 1 x4
Part 3 x20
Part 4 x14

Lyrics
To burrow my way through death and flesh
All beasts I let out, ill buried untold
To lock my cage, unleash the fallen
Fear eyes contain, light in my soul

Feral snakes collide, burn in my skull
Freeing the circles, that night I saw a burial train
All thieves I bludgeon
From ice I burn, breathe astral plane

Grayed eye enclosed
Seer east is gone
From now on, farther on

I'm nailed to the crossroads, searching for the piece of me
That wasn't mine, blood dripping from my hands
My end has seen the figure of my lightkeeper
Standing in the doorway

Like us on Facebook.....
-> Loading Time :0.0241 sec