The Deadly Rhythm Tabs & Lyrics by Refused

The Deadly Rhythm

guitar tabs lyrics

Refused

Album : The Shape of Punk to Come hardcore PlayStop


THE DEADLY RHYTHM - Refused


By:Brad Nordling

Drop D Tuning

Intro X2
e|--------------------------------------------------------------|
B|--------------------------------------------------------------|

G|--------------------------------------------------------------|
D|-22--22-2222--3----2----222-2-5-2-6-2-5-2-6-2-5-2-6-2-5-2-6-2-|
A|-22--22-2222--3----2----222-2-5-2-6-2-5-2-6-2-5-2-6-2-5-2-6-2-|
D|-22--22-2222--3----2----222-2-5-2-6-2-5-2-6-2-5-2-6-2-5-2-6-2-|

Verse X4
e|---------------------------|---------------|
B|---------------------------|---------------|
G|---------------------------|-----4444-5555-|
D|-2222---2222---2222---2222-|-222-4444-5555-|
A|-2222---2222---2222---2222-|-222-2222-3333-|
D|-2222---2222---2222---2222-|-222-----------|

X5
e|--------------------------|
B|--------------------------|
G|---44---44---44-555555555-|
D|-2-44-2-44-2-44-555555555-|
A|-2-22-2-22-2-22-333333333-|
D|-2----2----2--------------|

e|-----------------|
B|-----------------|
G|-----------------|
D|-2-6-2-5-2-22222-|
A|-2-6-2-5-2-22222-|
D|-2-6-2-5-2-22222-|

Like us on Facebook.....
-> Loading Time :0.0113 sec