Technique Tabs & Lyrics by LINKIN PARK

Technique

guitar tabs lyrics

LINKIN PARK

Album : Splitting the DNAPlayStop


intro:

----------------------
----------------------
----------------------
-----6-7-6------------
---5-------5----------
-4-----------6--------

Then after Joe Hahn says you must excercise the proper technique:


--------------------
-------2------------
-----0--------------
---6---6------------ play that the necessary times
-4--------5---------
-4----------7^------

Final part:

----------------------
----------------------
----------------------
-10--5-7\6/7----------
-10--5-------5--------
-10--5---------6------

that's all, i believe this is %100 right

Like us on Facebook.....
-> Loading Time :0.0155 sec