Take On Me Tabs & Lyrics by Team Dresch

Take On Me

guitar tabs lyrics

Team Dresch

Album : Captain My Captain rock PlayStop







4/4
Gtr I
|--------------|---------------|--------------------|--------------------|
|---3-5--3-----|-5--5--5-7-7-7-|-7-8-8-10--10-10-12-|-12--12--12-10------|
|----------5-4-|---------------|--------------------|----------------12--|

|--------------|---------------|--------------------|--------------------|
|--------------|---------------|--------------------|--------------------|
|--------------|---------------|--------------------|--------------------|


|-----------------------|------------------|
|-----------------------|------------------|
|-(12)-11--12--12-12-12-|-7-9-9-11--9-9-12-|
|-----------------------|------------------|
|-----------------------|------------------|
|-----------------------|------------------|


|---------------------|------------10-10-10-|
|----------10----(10)-|-12--12--12----------|
|-(12)-9-9------------|---------------------|
|---------------------|---------------------|
|---------------------|---------------------|
|---------------------|---------------------|


|-(10)-10--10--10-10--|-12b13r==12b13r==12b13r=|
|---------------------|------------------------|
|---------------------|------------------------|
|---------------------|------------------------|
|---------------------|------------------------|
|---------------------|------------------------|


|-(12)-12b13r==12--12--|-12--12-12--10-----|
|----------------------|----------------12-|
|----------------------|-------------------|
|----------------------|-------------------|
|----------------------|-------------------|
|----------------------|-------------------|


|-------------------|----------------|
|-(12)-12-12--12-12-|-------7--7---8-|
|-------------------|-7-9-9------9---|
|-------------------|----------------|
|-------------------|----------------|
|-------------------|----------------|


|--------------------|------------------|---------|
|-(8)-8---10--10---8-|-(8)-8---7--7-----|---------|
|-------9--------9---|-------9------9---|---------|
|--------------------|----------------9-|---(9)---|
|--------------------|------------------|---------|
|--------------------|------------------|---------|



** Generated using Power Tab Editor by Brad Larsen: The Official Power Tab Web Site

Like us on Facebook.....
-> Loading Time :0.0265 sec