Suicidal Failure Tabs & Lyrics by Suicidal Tendencies

Suicidal Failure

guitar tabs lyrics

Suicidal Tendencies

Album : Suicidal Tendencies hardcore punk PlayStop


Band: Suicidal Tendencies
Album: Suicidal Tendencies
Song: Suicidal Failure

Copyright (c) (Virgin) (1983)
Version 1.0 - (20/06/05)

Transcribed By: Steve
Email: stephen.elvidge1@ntlworld.com


. - palm mute / - slide up to
\ - slide down to ~ - vibrato
h - hammer on b - Bend
p - pull off Suffixes for bend
t - tap f - full bend h - half bend
ph - pinched harmonic q - quarter bend t - tap bend
* - see comment ^ - Hold bend r release bend
x - Stuccatto ~ - vibrato bend
, - slight palm mute () - ghost note, sustained note
" - tremolo note - Trill

Tunning E A D G B E


Main / Verse Riff


E-------------------------------------|
B-------------------------------------|
G-6/7-7---7---7---8-8-8---10-101010\--|
D-6/7-7---7---7---8-8-8---10-101010\--|
A-4/5-5-5-5-5-5-5/6-6-6---8--8-8-8-\--|
E-4/5---5---5---5/6-6-6---8-----------| Rpt 4 X

Backing for guitar solo / Chorus

E----------------------------------|
B----------------------------------|
G-12--12-12-12-12-12\10109---------|
D-12--12-12-12-12-12\10109--9/1011-|
A-10--10-10-10-10-10\8-8\7--7/8/9--|
E----------------------------------|

E----------------------------------|
B----------------------------------|
G-12--12-12-12-12-12\111111119-9-9-|
D-12--12-12-12-12-12\111111119-9-9-|
A-10--10-10-10-10-10\9-9-9-9\8-8-8-|
E----------------------------------|

Rpt Verse Riff 4 X
Rpt Chorus

Rpt Verse
Rpt Chorus

Rpt Verse
Rpt Chorus

Rpt Verse

Last time
[PM]
E---------------------------------------|
B---------------------------------------|
G-6/7-7---7---7---8-8-8---10-101010-----|
D-6/7-7---7---7---8-8-8---10-101010-----|
A-4/5-5-5-5-5-5-5/6-6-6---8--8-8-8------|
E-4/5---5---5---5/6-6-6---8---------0-0-|


E------------------------------------|
B----0-------------------------------|
G----0-------------------------------|
D-5----5--5--5-5-5-5-3-3-3-2---------|
A-5----5--5--5-5-5-5-3-3-3-2--2-3-4--|
E-3----3--3--3-3-3-3-1-1-1-0--0-1-2--|

E-------------------------------------|
B----0--------------------------------|
G----0---------------1111111110101010-|
D-5----5--5--5-5-5-5-1111111110101010-|
A-5----5--5--5-5-5-5-9-9-9-9\8-8-8-8--|
E-3----3--3--3-3-3-3------------------|

Riff A

E----------------|
B----------------|
G----------------|
D-6/777/8/101010-|
A-4/555/6/8-8-8--|
E----------------| Rpt 4 X

Rpt Chorus
Rpt Riff A 4 X
Rpt Chorus
Rpt Riff A 3 X

E--------------|
B--------------|
G--------------|
D-6/777/8/1010-|
A-4/555/6/8-8--|
E--------------|



END

Like us on Facebook.....
-> Loading Time :0.0148 sec