Stone Dead Forever Tabs & Lyrics by Metallica

Stone Dead Forever

guitar tabs lyrics

Metallica

Album : Hero of the Day heavy metal PlayStop


Band- Metallica
Song- Stone Dead Forever

Gtr I (Eb Ab Db Gb Bb Eb) - 'James Hetfield - Rhythm w/dist'
Gtr II (Eb Ab Db Gb Bb Eb) - 'Kirk Hammett - Rhythm / Lead w/dist'

Intro
Q=200
4/4
Gtr I

E5 D5
W E E E E +H +H. Q E E E E +H
| | | | | | | | | | | |
/ / / / / / / / / / / /
Gtr II
Wx8 W W W
|------------|---------------|-------------|---------------|


E C5 G5X A5XII
+H. Q W +H +Q. +E H +Q. +E W
| | | | | | | | | |
/ o / / / / / / / /
|-------------|----------|----------------|---------------|------|


Verses
$
$$
Gtrs I, II
E5 D5E5 E5 D5E5
Q E E +Q +Q W Q E E +Q +Q W
| | | | | | | | | |
/ / / / / / / / / /
|----------------|----------|----------------|------|


E5 D5E5 E5 D5E5 A5V
Q E E +Q +Q W Q E E +Q Q Q E E +E E E E
| | | | | | | | | | | | | | | | |
/ / / / / / / / / / / / / / / / /

W W Q E E +H Q. E +E E Q
|----------------|----------|----------------|--------------------|
|----------------|----------|----------------|--------------------|
|----------------|----------|-5----5-(5)-----|--------------------|
|----------------|----------|-5--5-5-(5)-----|-5-----5-(5)-5------|
|----------------|----------|-3----3-(3)-----|-5-----5-(5)-5------|
|----------------|----------|-3----3-(3)-----|-3-----3-(3)-3-3\---|
|-substitute on D.S. --|

E5 D5E5 E5 D5E5
Q E E +Q +Q W Q E E +Q +Q
| | | | | | | | | |
/ / / / / / / / / /
|----------------|----------|----------------|


E5 D5E5
W Q E E +Q +Q W
| | | | |
/ / / / /
|----------|----------------|------|


C5 B5 A5 A6 A5 A6A5
H. Q H. E E Q E E Q E E
| | | | | | | | | |
/ / / / / / / / / /
|------------|-------------|---------------|


A6A5 B5 B6 B5 B6B5 B6B5
+Q E E Q E E Q E E Q E E +E E E E E E E E
| | | | | | | | | | | | | | | | | | |
/ / / / / / / / / / / / / / / / / / /
|----------------|---------------|------------------|


D5 C#5
Gtr II
Q E E Q E E +E E Q Q Q H Q E E E E E E E E E E
| | | | | | | | | | | | | | | | | | | | | |
/ / / / / / / / / / / / / x / / / / / / / /

Gtr I
Q E E +E E E E Q Q Q Q Q Q Q E E +E E E E E E Q
|------------------|---------------|----------------|-------------------|
|------------------|---------------|----------------|-------------------|
|------------------|---------------|----------------|-------------------|
|------------------|---------------|----------------|-------------------|
|-5--5-5-(5)-5-5-5-|--5---5--5--5--|-4---4---4--4-4-|-(4)-4-4-4-4-4-5---|
|-3--3-3-(3)-3-3-3-|--3---3--3--3--|-2---2---2--2-2-|-(2)-2-2-2-2-2-3---|
|
| Q E E Q E E E E Q Q q E E E e Q E E +E E E E Q E E
|------------------|---------------|----------------|-------------------|
|------------------|---------------|----------------|-------------------|
|------------------|---------------|-7-7-7----------|-------------------|
|-5--5----5------5-|----5-5--5--5--|-7-7-7----------|-----2-------------|
|-5--5----5------5-|----5-5--5--5--|-5-5-5-4-4--4-4-|-(4)---4-4-4---4-4-|
|-3--3----3----3-3-|----3-3--3--3--|---------2--2-2-|-(2)---2-2-2---2-2-|
|-Gtr II substitutes on D.S.S.

A5 A6 A5 A6A5 A6A5
Gtrs I, II
Q E E Q E E +Q E E +Q Q
| | | | | | | | | |
/ / / / / / / / / /
|---------------|----------------|


B5 B6 B5 B6B5 B6B5 F#5 G5
Q Q Q E E E E E E +E E E E Q H Q
| | | | | | | | | | | | | | | |
/ / / / / / / / / / / / / / / /
|--------------|------------------|------------|


To Coda -|
To Double Coda -|
F#5 F5 E5
E Q. H W +H. E E
| | | | | | |
/ / / / / / /
|-------------|----------|--------------||


Interlude
Gtr I
E5 D5
W +W W +W
| | | |
/ / / /

Gtr II
~~~~~~~~~
W +W Q +E E Q Q +H +H
|----------|------------|-------------------|---------------|
|----------|------------|-------------------|---------------|
|----------|------------|-9b11r=(9)p7----7--|-(7)----(7)----|
|-2--------|-(2)--------|-------------9-----|---------------|
|-2--------|-(2)--------|-------------------|---------------|
|-0--------|-(0)--------|-------------------|---------------|


C5
W +W
| |
/ /

~~~~~~~
Q +Q +E E Q Q +Q +H
|----------------------|-----------------|
|-9b11===(9)r=(9)------|--7--------------|
|-9b10===(9)r=(9)p7----|--7--(7)--(7)----|
|-------------------9--|-----------------|
|----------------------|-----------------|
|----------------------|-----------------|


D.S. al Coda
G5 A5V
H. +Q Q Q Q Q
| | | | | |
/ / / / / /

~~
H +E E E +E a +E E E E +E E Q
|--------------------------|------------------------||
|---------------9b10==(9)r-|---------------------7--||
|-9-----(9)-/9--9b11==(9)--|-(9)r(9)p7---7-(7)-9-7--||
|--------------------------|-----------9------------||
|--------------------------|------------------------||
|--------------------------|------------------------||


&
Breakdown
Gtr I
E5 D D5
W +W +H. E E Q. E +E E Q
| | | | | | | | | |
/ / / o / / / / / /

Gtr II
~~~~~~~~
W +W H +Q. E +H. Q
|----------|------------|-----------------|------------------|
|----------|------------|-----------------|------------------|
|----------|------------|--7-----(7)----7-|-(7)----------7\--|
|-2--------|-(2)--------|-----------------|------------------|
|-2--------|-(2)--------|--5-----(5)----5-|-(5)----------5\--|
|-0--------|-(0)--------|-----------------|------------------|


C5 G5 A5V
W +H Q Q Q E E +Q Q W
| | | | | | | | | |
/ / / / / / / / / /

W +H. E E H. E E H. Q
|----------|-----------------|--------------------|---------------|
|----------|-----------------|--------------------|---------------|
|-5--------|-(5)-------11s12-|-12-----------12s14-|-14-------14\--|
|----------|-----------------|-12-----------12s14-|-14-------14\--|
|-3--------|-(3)--------9s10-|-10-----------10s12-|-12-------12\--|
|----------|-----------------|--------------------|---------------|


|--3--|
Q +Q H Wx6 H Q E E E
|---------------|------------|------------------|
|---------------|------------|---------15p12----|
|-9--(9)\-------|------------|---------------14-|
|-9--(9)\-------|------------|------------------|
|-7--(7)\-------|------------|------------------|
|---------------|------------|------------------|


E5(type 2) G5
Gtr I
H. E E +H Q Q W W
| | | | | | |
/ / / / / / /

Gtr II
~~~~~~~~~~~~~~~~~~~ ~~~~~~~~~~~~~~~~
|3-| |--3--|
W +H. E Q W +H. E E E
|--------------|------------------|-----------|--------------------|
|--------------|------------15p12-|-----------|-----------15p12----|
|-12-----------|-(12)-------------|-12--------|-(12)------------14-|
|--------------|------------------|-----------|--------------------|
|--------------|------------------|-----------|--------------------|
|--------------|------------------|-----------|--------------------|


~~~~~~~~~~ ~~~~
H +H +Q +H E S S
|---------------|------------------------|
|---------------|---------------15p12----|
|-12----(12)----|-(12)--(12)----------14-|
|---------------|------------------------|
|---------------|------------------------|
|---------------|------------------------|


~~ ~~~~~
W Q +Q E +Q.
|-----------|-------------------------------||
|-----------|-------------------------------||
|-12--------|-14b16===(14)r--14b16==(14)r---||
|-----------|-------------------------------||
|-----------|-------------------------------||
|-----------|-------------------------------||


Guitar Solo
Gtr I
|-Rhy Fig 1
E5(type 2)
W
|
/

Gtr II
~~~~~~~~~~
E +Q. +Q +Q
|----------------------------|
|----------------------------|
|-14b16==(14)---(14)--(14)r--|
|----------------------------|
|----------------------------|
|----------------------------|


G5
+H. E E W
| | | |
/ / / /

~~~~~
|--3--| |--3--|
E Q E +Q E E Q E E E Q E E E
|--------------------------------|----------------------------|
|-15-----------------------------|--------------12------------|
|-----14b16--14b16==(14)r--14p12-|-14--14p12----12--14p12-----|
|--------------------------------|-----------14-----------14--|
|--------------------------------|----------------------------|
|--------------------------------|----------------------------|


+H +Q. E
| | |
/ / /

|--3--|
E E E E E E E E E
|-----------------------------|
|-----------------------------|
|-12-14-14p12----12-----------|
|-------------14-----14-12----|
|--------------------------14-|
|-----------------------------|


A5V
W +H. E E
| | | |
/ / / /

~~
E E E S S E E Q E E E E E E E E
|--------------------------|---------------------------|
|--------------------------|---------------------------|
|-12-----------------------|-----------------------12--|
|--------------------------|-----------------------12--|
|----14-12-12h14p12-10-----|--------10-10-10-12s14-----|
|----------------------12--|-10--12--------------------|


C5 D5 end Rhy Fig 1-|
Q Q Q E E Q Q E E E E
| | | | | | | | | | |
/ / / / / / / / / / /

E E Q E E E E E E E E E E E S S
|----------------------|----------12-------------12-|
|----------------------|----12-------12-15-15-15----|
|-12----12--12-12----0-|-12-12-14----12-------------|
|-12h14-----------14---|----------------------------|
|----------------------|----------------------------|
|----------------------|----------------------------|


w/Rhy Fig 1
~~~~~~~
Q E E +Q a Q
|-12------12-12-(12)------12-------|
|-15b17===============15r-15b17====|
|----------------------------------|
|----------------------------------|
|----------------------------------|
|----------------------------------|



+E Q. Q Q E +E E E +E E E E
|-------12------12-----12---|--------------12--------------12-------12-|
|-(15)r-15b17---15b17-------|-15b17==(15)r----15b17==(15)r----------12-|
|---------------------------|---------------------------------14b16----|
|---------------------------|------------------------------------------|
|---------------------------|------------------------------------------|
|---------------------------|------------------------------------------|



E E E E Q E E
|-12-------12-12--------12-15p=|
|-12-------12-12---------------|
|----14b16-------14b16---------|
|------------------------------|
|------------------------------|
|------------------------------|



|3-|
E E E E E E E Q E +E E E E E E E
|-12----12----------------|----------------------------------|
|----12----12-15p12----12-|------------------12-14-12-14b15==|
|-------------------14-12-|-14b16r(14)p12----12-14-12-14b16==|
|-------------------------|---------------14-----------------|
|-------------------------|---------------14-----------------|
|-------------------------|----------------------------------|



+Q a +E +E a +E +Q a +E
|---------------------------------------------------------|
|-(14)r--14b15==(14)r(14)-14b15==(14)r(14)---14b15==(14)r=|
|-(14)r--14b16==(14)r(14)-14b16==(14)r(14)---14b16==(14)r=|
|---------------------------------------------------------|
|---------------------------------------------------------|
|---------------------------------------------------------|


+E a +E +E a +E +E +E E E
|-------------------------------------------------|
|-(14)-14b15==(14)r(14)-14b15==(14)r(14)-(14)S0-0-|
|-(14)-14b16==(14)r(14)-14b16==(14)r(14)-(14)S0-0-|
|-------------------------------------------------|
|-------------------------------------------------|
|-------------------------------------------------|


E5
Q E E +H +Q E E +E E E E
| | | | | | | | | |
/ / / / / / / / / /

W +H. Q
|--------------|--------------------|
|--------------|--------------------|
|-9------------|-(9)-----------9----|
|--------------|--------------------|
|-7------------|-(7)-----------7----|
|--------------|--------------------|


D5 C5
Q. E +Q. E Q. E +H W
| | | | | | | |
/ / / / / / / /

~~~~~~~~~
|--3---|
W Q +E E E +Q Q E Q. +H
|----------------|-------------------------|---------------|
|----------------|-------------------------|---------------|
|-7--------------|-9b11r=(9)p7----------7--|-7h9----(9)----|
|-7--------------|---------------9-(9)-----|---------------|
|-5--------------|-------------------------|---------------|
|----------------|-------------------------|---------------|


D.S.S. al Dbl. Coda
A G5 A5V
+H Q. E W Q Q +E E E E
| | | | | | | | | |
/ / o / / / / / / /

~~~
|-3-|
+W E +E E E +H E Q. Q E q
|---------------|---------------------|--------------------||
|---------------|---------------------|--------------------||
|-(9)-----------|-9b11r(9)p7----------|----------7---7-9---||
|---------------|------------9-(9)----|-7h9------9---9-9---||
|---------------|---------------------|--------------------||
|---------------|---------------------|--------------------||


&&
Guitar Solo
E5 D5
Q. E +E E Q +H. Q W
| | | | | | | |
/ / / / / / / /

~~~~~~~~~~~~~~~~~~~~~ ~~~~
W +H. Q E Q. +H
|----------------|-------------|-----------------|
|----------------|-------------|-----------------|
|-9--------------|-(9)------9--|-9s12----(12)----|
|----------------|-------------|-----------------|
|-7--------------|-(7)------7--|-7s10----(10)----|
|----------------|-------------|-----------------|


C
+W W +W
| | |
/ o /

~~~~ ~~
+H. E E W +H. Q
|-----------------|-----------|----------------|
|-----------------|-----------|----------------|
|-(12)------12s14-|-14--------|-(14)------14\--|
|-----------------|-----------|----------------|
|-(10)------10s12-|-12--------|-(12)------12\--|
|-----------------|-----------|----------------|


D5
W W W
|
/

~~~~~~~~~ ~~~~~~~~~~
H +Q. E E E Q Q +Q E +Q. +Q +Q
|--------------|------------------------|---------------------------|
|--------------|---------15b17===(15)r--|-15b17==(15)---(15)--(15)--|
|-5----(5)---7-|-7s14-0-----------------|---------------------------|
|--------------|------0-----------------|---------------------------|
|-3----(3)---5-|-5s12-------------------|---------------------------|
|--------------|------------------------|---------------------------|


+S E. +E E +E Q E
|-------0--(0)----------------------------|
|-(15)r--------15b17==(15)r-15b17--15b17==|
|-----------------------------------------|
|-----------------------------------------|
|-----------------------------------------|
|-----------------------------------------|


~~
|--3--| |--3--| |--3--| |--3--|
+Q E E E Q E E E E E E E E E E E E E
|------------------------------|-------------------------------|
|-(15)r--15p12----12-----------|-------------------------------|
|--------------14-----14p12----|-12-12h14p12----12-12h14p12----|
|---------------------------14-|-------------14-------------14-|
|------------------------------|-------------------------------|
|------------------------------|-------------------------------|


|--3--| |--3--|
E E a E E E E E E E E
|----------------------------------|
|----------------------------------|
|-12-12-12h14p12----12-12h14p12----|
|----------------14-------------14-|
|----------------------------------|
|----------------------------------|


~~
|--3--|
Q E E E Q E E +Q a Q E E E E
|------------------------|------------------------------|
|---------------------12-|-(12)-----12-----14----14b15==|
|-12--13p12----12-----12-|-(12)-----12--12-14-12-14b16==|
|-----------12-----14----|-------12---------------------|
|------------------------|------------------------------|
|------------------------|------------------------------|



W
|--3---|
+Q E +E +E E E E E
|-----------------------------------------|
|-(14)r----------------------------14b15==|
|-(14)r--14b16==(14)r(14)-14p12S14-14b16==|
|-----------------------------------------|
|-----------------------------------------|
|-----------------------------------------|


E5(type 2)
Gtr I
Q E E +Q E E E E E E Q E E
| | | | | | | | | | | | |
/ / / / / / / / / / / / /

~~~~~~~~~
+Q E E E E E E +Q E E E E E S +S
|--------------------------|-------------------------------------|
|-(14)r-----------12----12-|-(12)--------------------------------|
|-(14)r--14p12----12----12-|-(12)------------12----12b14==(12)r==|
|--------------14----14----|--------14-12-14----14---------------|
|--------------------------|-------------------------------------|
|--------------------------|-------------------------------------|


G5 A5V
W +W Q E E H
| | | | | |
/ / / / / /

~~~~ ~~~~~~~~~
+Q E E E E E E +E. S E E E E E E +Q E E E E E E
|-------------------------|--------------------------|-------------------------|
|-------------------------|-----------------12----12-|-(12)--------------------|
|-(12)-----------12----12-|-(12)-0----------------12-|-(12)-----------12----12-|
|-------14-12-14----14----|--------14-12-14----14----|-------14-12-14----14----|
|-------------------------|--------------------------|-------------------------|
|-------------------------|--------------------------|-------------------------|


C5
+H. Q W
| | |
/ / /

+E E E E E E E E E E E E E E E E
|---------------------------|-------------------------|
|---------------------------|-------------------------|
|-(12)-14-14p12-14p12-12-14p|=12-12-14p12-12-14p12-12-|
|---------------------------|-------------------------|
|---------------------------|-------------------------|
|---------------------------|-------------------------|


D5
W
|
/

E +E E E +Q E E
|-----------------------------------|
|-----------------------------------|
|-14b16==(14)r-14-14-(14)\--7-9b11==|
|-----------------------------------|
|-----------------------------------|
|-----------------------------------|


E5(type 2) G5
Q Q E E E E Q Q Q Q Q E E Q E E
| | | | | | | | | | | | | | | |
/ / / / / / / / / / / / / / / /

~
+Q E E Q E E +Q E E Q E E +Q E E Q E E
|-----------------------|----------------------|----------------------|
|-----------------------|----------------------|----------------------|
|-(9)r--9p7-9---7-9b11==|=(9)r--9p7-9--7-9b11==|=(9)r--9p7-9--7-9b11==|
|-----------------------|----------------------|----------------------|
|-----------------------|----------------------|----------------------|
|-----------------------|----------------------|----------------------|


A5V
Q E E Q Q H Q E E E E E E H
| | | | | | | | | | | | | |
/ / / / / / / / / / / / / /

+Q E E Q E E +Q E E Q E E +Q E E Q E E
|----------------------|----------------------|-----------------------|
|----------------------|----------------------|-----------------------|
|-(9)r--9p7-9--7-9b11==|=(9)r--9p7-9--7-9b11==|=(9)r---9p7-9--7-9b11==|
|----------------------|----------------------|-----------------------|
|----------------------|----------------------|-----------------------|
|----------------------|----------------------|-----------------------|

|-Rhy Fig 3
C5 D5 E5
H H H H Q E E Q E E
| | | | | | | | | |
/ / / / / / / / / /

~~~~~ TP TP TP
+Q Q +E Q. a +E Q. H H H
|---------------------------|--------------3s===|=11------10------|
|---------------------------|--------------4s===|=12------10------|
|-(9)r--9b11===(9)r-9b11====|=(9)r(9)-----------|-----------------|
|---------------------------|---------9\--------|-----------------|
|---------------------------|-------------------|-----------------|
|---------------------------|-------------------|-----------------|


G5
Q Q Q E E Q Q Q. E E E Q Q E E
| | | | | | | | | | | | | | |
/ / / / / / / / / / / / / / /

TP TP TP TP TP TP TP TP TP
E Q. Q E E H +E E Q Q. +E Q. E
|-10-11-----11\------|-/10-----(10)-10\-2---|-/10------(10)-/10\--------|
|-10-12-----12\--0-0-|-/12-----(12)-12\-3---|-/12------(12)-/12\----/12-|
|----------------0-0-|----------------------|---------------------------|
|--------------------|----------------------|---------------------------|
|--------------------|----------------------|---------------------------|
|--------------------|----------------------|---------------------------|


A5XII
Q Q Q E E
| | | | |
/ / / / /

TP TP TP TP
+Q Q +E Q.
|--------/10--(10)\-/10\-----|
|-(12)\--/12--(12)\-/12\-----|
|----------------------------|
|----------------------------|
|----------------------------|
|----------------------------|


C5
+E E Q Q E E Q Q Q Q
| | | | | | | | | |
/ / / / / / / / / /

TP TP TP TP TP TP TP TP TP TP TP
Q +E E +E E Q +E Q E +Q Q
|-/10---(10)\-/10-(10)\-7-/10---|-(10)--9----8--(8)s=7--|
|-/12---(12)\-/12-(12)\-8-/12---|-(12)-11---10-(10)s=9--|
|-------------------------------|-----------------------|
|-------------------------------|-----------------------|
|-------------------------------|-----------------------|
|-------------------------------|-----------------------|

end Rhy Fig 3-|
D5
Q Q Q Q
| | | | w/Rhy Fig 3 x2
/ / / /

TP ~~~~~~~~~ ~~~~~~~~~
Q Q Q e E +Q E E E E E E +Q E E E E E E
|-7\--------------|-------------------------|-----------------------------|
|-9\--------12-12-|-(12)-----------12----12-|-(12)-----------12----12b13==|
|--------4S=12-12-|-(12)-----------12----12-|-(12)-----------12----12b13==|
|-----------------|-------14-12-14----14----|-------14-12-14----14--------|
|-----------------|-------------------------|-----------------------------|
|-----------------|-------------------------|-----------------------------|



+Q E E E E E E +E E E E E +E E E
|---------------------------|----------------------------------|
|-(12)r------------12-------|------14--------------------13-12-|
|-(12)r------------12----12-|-(12)-14-12-14-14b16==(14)r-14-12-|
|--------14-12-14-----14----|----------------------------------|
|---------------------------|----------------------------------|
|---------------------------|----------------------------------|



+E +E E E E E E E
|--------------------------------------|
|-(12)b13==(12)r----------12----12b13==|
|-(12)b13==(12)r----------12----12b13==|
|----------------14-12-14----14--------|
|--------------------------------------|
|--------------------------------------|



+Q E E E E E E
|-------------------------------|
|-(12)r------------12----12b13==|
|-(12)r------------12----12b13==|
|---------14-12-14----14--------|
|-------------------------------|
|-------------------------------|



+Q E E E E E E E E E E E E E E
|--------------------------|-------------------------|
|-(12)r-----------12----12S|=14-14-14-14-14-12-12-12-|
|-(12)r-----------12----12S|=14-14-14-14-14-12-12----|
|--------14-12-14----14----|-------------------------|
|--------------------------|-------------------------|
|--------------------------|-------------------------|


|----3-----|
+E Q. E E Q E E +E E Q Q Q
|-------------------12---------|-12---------------------------12---|
|-(12)-12--------12-12-12------|-------------------12----12--------|
|------14b16-----------14b16---|----14b16==(14)r-0-14b16-----------|
|------------------------------|-----------------------------------|
|------------------------------|-----------------------------------|
|------------------------------|-----------------------------------|


|---3----| |--3--| |--3---|
E E E Q E Q Q Q
|----------12-------12-12--12-12----|
|-12----12----12----12-12-----12----|
|-14b16-------14b16-----------------|
|-----------------------------------|
|-----------------------------------|
|-----------------------------------|


|----3----| |----3-----| |----3-----|
Q Q Q Q Q Q Q Q Q H
|-12---12---12-------12-----------|-12---------12-12------|
|-12---12---12-12----12---12------|-12-12------12-12------|
|--------------14b16------14b16---|----14b16--------------|
|---------------------------------|-----------------------|
|---------------------------------|-----------------------|
|---------------------------------|-----------------------|


E E +E. S E E E E
|--------------------2----9--------|
|-------------------12-12---12-----|
|--x-14b16==(14)r-x-14------14b16--|
|----------------------------------|
|----------------------------------|
|----------------------------------|


PM
|--3--| |-3-| |--3--| |--3--|
E E Q E +Q E +E E Q E E E E E E E E
|-------------12-(12)--------------12-|-12-----12-12-12-12-12-12-12-12-|
|-12-12-12----12-(12)--------------12-|-12-----12-12----------14-14-14-|
|-14----14b16---------14b16==(14)r----|-14b16--------------------------|
|-------------------------------------|--------------------------------|
|-------------------------------------|--------------------------------|
|-------------------------------------|--------------------------------|


E5
E E Q Q E E E E Q Q Q
| | | | | | | | | | |
/ / / / / / / / / / /

Q E E E E E E E E E E E +E E E
|-12-------12--12-----12--12-12----12-|-------12--------12-12------------12-|
|-15b17====15r-15b17==15r-15-15b17----|-15b17----15b17=====15r(15)-15b17----|
|-------------------------------------|-------------------------------------|
|-------------------------------------|-------------------------------------|
|-------------------------------------|-------------------------------------|
|-------------------------------------|-------------------------------------|


D5
E E Q E E Q Q Q E E Q
| | | | | | | | | | |
/ / / / / / / / / / /

|--3--| |---3----| |-3--|
E E E E E E e e E E E E E a E E E E E E
|-------12-------12-------12-12-12-|-15p12----12-12-12h14p12----12------|
|-15b17----15b17----15b17----------|-------15----------------15----15-0-|
|----------------------------------|------------------------------------|
|----------------------------------|------------------------------------|
|----------------------------------|------------------------------------|
|----------------------------------|------------------------------------|


C5
E E Q Q Q
| | | | |
/ / / / /

|-3--| |--3--| |--3--|
Q E E E E E E E e E
|---------------------------------|
|-15p==12----12-------------------|
|---------15----15-14p12----12-12-|
|------------------------14-------|
|---------------------------------|
|---------------------------------|


B5
Q Q Q Q E E E E Q Q
| | | | | | | | | |
/ / / / / / / / / /

|--3--| |--3--|
E E E E E E E E E E E E E E Q E E
|-------------------------------|--------------------------|
|-------------------------------|----12-14-14-14b15--14-12-|
|----12-12-14p12----------------|----12-14-14-14b16--14-12-|
|-14-------------14p12----12h14-|-14-----------------------|
|----------------------14-------|--------------------------|
|-------------------------------|--------------------------|


E5
E E Q E E Q Q Q Q E E +Q Q Q E E
| | | | | | | | | | | | | | | |
/ / / / / / / / / / / / / / / /

+E E E E E E E E Q H E E +Q E E +E E Q
|------------------------------------|---------------|---------------------|
|-(12)-------12----------------------|---------------|---------------------|
|-(12)-12-14-14b15-14b16==14r-14-12\-|-9--9-----11s9-|-(9)--9-9-(9)-9-9\---|
|------------------------------------|-9--9-----11s9-|-(9)--9-9-(9)-9-9\---|
|------------------------------------|-7--7------9s7-|-(7)--7-7-(7)-7-7\---|
|------------------------------------|---------------|---------------------|


Gtrs I, II
D5 C5
Q E E +E E E E E E E E +E E E E Q H E E E E Q E E E E
| | | | | | | | | | | | | | | | | | | | | | | | | |
/ / / / / / / / / / / / / / / / / / / / / / / / / /
|-----------------|------------------|-------------|----------------|


G5 A5V E5 E E5
Gtr I
Q E E E E Q Q E E Q Q Q E E +Q +Q
| | | | | | | | | | | | | | | |
/ / / / / / / / / / / / o / / /

Gtr II
Q E E E E E E +E E Q E E E E Q E E +Q +Q
|-------------------------|------------------------|-------------------*|
|-------------------------|--------------------0-0-|-------------------*|
|-12--12-12--12--12-12-14-|-(14)-14-14---14-14-0-0-|-9--7-9-(9)--(9)\--*|
|-12--12-12--12--12-12-14-|-(14)-14-14---14-14-----|-9--7-9-(9)--(9)\--*|
|-10--10-10-(10)-10-10-12-|-(12)-12-12---12-12-----|-7--5-7-(7)--(7)\--*|
|-------------------------|------------------------|-------------------*|

Like us on Facebook.....
-> Loading Time :0.0239 sec