Someday Tabs & Lyrics by Shawn Colvin

Someday

guitar tabs lyrics

Shawn Colvin

Album : Cover Girl folk PlayStop


Someday by Shawn Colvin
Album: Cover Girl

intro:
E -0-2-4-2-0-2-4-2---|-0-2-2-3-3-2---0-----|
B -3-------3---------|-3-----------3-2--2-3|
G -2-------2---------|-2-------------2-----|
D -------------------|-----------------0---|
A -------------------|---------------------|
e -------------------|---------------------|


riff2: riff3:
E -0-2-2-3-3-2----0------| e -0-2-2-3-3-2---0-2-0---|
B -3------------3-2-2-2--| B -3-----------3-3-----3-|
G -2--------------2------| G -2-------------2-------|
D -----------------3-----| D -----------------------|
A -----------------------| A -----------------------|
e -----------------------| E -----------------------|


riff4:
E -0-2-4-2-0-2-4-2----0-2-0-----|
B -3-------3--------3--3-----3--|
G -2-------2-----------2--------|
D ------------------------------|
A ------------------------------|
e ------------------------------|

In the verse just before chorus play chords Dsus2 and D and alternate
between riff2 & riff3

intro: (2x)

Dsus2 D Dsus2 D riff2 Dsus2 D
there ..

Dsus2 D riff3 Dsus2 D Dsus2 D
the ..to..

riff2 Dsus2 D Dsus2

read ..
D riff3 Dsus2 D Dsus2 D riff2

away ..
Dsus2 D Dsus2 D riff3

pumping ..
Dsus2 D Dsus2 D riff2

and ..
Dsus2 D Dsus2 D riff3

and ..
||||||||||||||||||||||||||||||||||||||||||||||||||||||||||||||||||||||||||||
chorus:
Bm G A D Bm G A D
someday ..
Bm G A D Bm A G D
i ...
riff4 riff4
someday______ someday_____

Dsus2 D Dsus2 D riff2
now my ..
Dsus2 D Dsus2 D riff3
me i ..
Dsus2 D Dsus2 D riff2
but i ..
Dsus2 D Dsus2 D riff3
someday ..
||||||||||||||||||||||||||||||||||||||||||||||||||||||||||||||||||||||||||||
chorus:
Bm G A D Bm G A D
someday ..
Bm G A D Bm A G D
i wanna ..
riff4 riff4
someday______ someday_____
riff4 riff4
someday______ someday_____


Like us on Facebook.....
-> Loading Time :0.0499 sec