Some Kind of Monster Tabs & Lyrics by Metallica

Some Kind of Monster

guitar tabs lyrics

Metallica

Album : St. Anger albums i own PlayStop


Some Kind of Monster
Metallica
St. Anger

Key:
/...slide up
\...slide down
X...mute (scratch)
pm...palm mute
h...hammer

p...pull off
~~...Vibrato
b...bend to specified note
r...release to specified note
(4)...ghost note


Tuning
Gtr. 1: 7-str. drop D tuning, down 1 step
(low to high) C C G C F A D
Gtr. 2: Drop D tuning, down 1 step
(C G C F A D)


Intro:
Gtr. 1 (7-str.)
|-------------------|-------------------|------------------|
|-------------------|-------------------|------------------|
|-------------------|-------------------|------------------|
|-------------------|-------------------|------------------|
|-------------------|-------------------|------------------|
|--0--0-3-5-0----0--|--3-5-0-3-5-0-3-5--|-0-0-3-5-0----0---|
|--0--0-0-0-0----0--|--0-0-0-0-0-0-0-0--|-0-0-0-0-0----0---|
lower vol. w/gtr.'s knob

|-------------------|---------------------|-----------------|
|-------------------|---------------------|-----------------|
|-------------------|---------------------|-----------------|
|-------------------|---------------------|-----------------|
|-------------------|---------------------|-----------------|
|--0--0-3-5-0----0--|-3-5-0-3-5-0-3-5b7r5-|-0--0-3-5-0----0-|
|--0--0-0-0-0----0--|-0-0-0-0-0-0-0-0-----|-0--0-0-0-0----0-|

|-------------------|
|-------------------|
|-------------------|
|-------------------|
|---------------***-|
|-3-5-0-3-5-0-------|
|-0-0-0-0-0-0----4--|
harm.
***vol. swell

Rhy. Fig. 1:
Gtr. 1
|-------------------|-----------------|------------------|------------------|
|-------------------|-----------------|------------------|------------------|
|.------------------|-----------------|------------------|-----------------.|
|-------------------|-----------------|------------------|------------------|
|.-0-0-0-3-5-0------|-3-5---3-5---3-5-|-0-0-0-3-5-0------|-3-5---3-5---3-5-.|
|--0-0-0-3-5-0------|-3-5---3-5---3-5-|-0-0-0-3-5-0------|-3-5---3-5---3-5--|
|--0-0-0-3-5-0----0-|-3-5-0-3-5-0-3-5-|-0-0-0-3-5-0----0-|-3-5-0-3-5-0-3-5--|
| |
| pm pm pm pm pm pm |
|Gtr.2 (6-str.) |
|-------------------|-----------------|------------------|------------------|
|-------------------|-----------------|------------------|------------------|
|.------------------|-----------------|------------------|-----------------.|
|.------------------|-----------------|------------------|-----------------.|
|--0-0-0-3-5-0------|-3-5---3-5---3-5-|-0-0-0-3-5-0------|-3-5-----5---3-5--|
|--0-0-0-3-5-0----0-|-3-5-0-3-5-0-3-5-|-0-0-0-3-5-0----0-|-3-5-0-3-5-0-3-5--|
pm pm pm pm pm.. pm

Gtr. 1 harm.
|------------|----------|-------------|----------|-------------|
|------------|----------|-0-----------|----------|-12----------|
|------------|----------|-0-----------|----------|-12----------|
|------------|----------|-------------|----------|-------------|
|-----3------|-5-0------|---------3---|-5--0-----|---------3---|
|-----3------|-5-0------|---------3---|-5--0-----|---------3---|
|-3-3-3------|-5-0------|-----3-3-3---|-5--0-----|-----3-3-3---|
pm.. pm.. pm..


Gtr. 2 Rhy. Fig.2
________________________
| |
|------------|----------|-------------| Play fig 2. a total of 5X
|------------|----------|-------------| with gtr 1 and through fill 1
|------------|----------|-------------|
|------------|----------|-------------|
|--3-3-3-----|-5--------|-----3-3-3---|
|--3-3-3-----|-5-0---(0)|(0)--3-3-3---|



Fill 1 w/fig 2
*|-------------------| |------------------|--------------|
|-------------------| |------------------|--------------|
|--------10-12------| |--------10-12---13b14---10-------|
|----12----------12-| X6|----12------------|-----10-------|
|-------------------| |------------------|------------3-|
|-------------------| |------------------|------------3-|
|-------------------| |------------------|--------3-3-3-|
*to get this sound, pm..
turn your tone
all the way down
and your pick-up switch
to the far left.

Rhy. Fig. 3:
Gtr 1
|--------------------------------|-------------------------------------|-------|
|--------------------------------|-------------------------------------|-------|
|.-------------------------------|------------------------------------.|-------|
|--__3__---------__3__-----------|-__3__-------------__3__-------------|-------|
|.-------0----0--------5--0----0-|-------5-----0--3--------0------3--5.|-----3-|
|--------0----0--------5--0----0-|-------5-----0--3--------0------3--5-|-----3-|
|--0-0-0-0----0--3-3-3-5--0----0-|-3-3-3-5-----0--3--5-5-5-0------3--5-|-3-3-3-|
| pm... pm... ..... ..... ... |
| |
| |
|Gtr. 2 Rhy. fig. 3A |
|--------------------------------|-------------------------------------|-------|
|--------------------------------|-------------------------------------|-------|
|._____6_____--------------------|-_____6_____-------_____6_____------.|-------|
|.-------------------------------|------------------------------------.|-------|
|--------------------------------|-------------------------------------|-3-3-3-|
|-0-0-0-0-0-0-0--3-----5--0----0-|-0-0-0-0-0-0-0--3--0-0-0-0-0-0--3--5-|-3-3-3-|
pm........... pm............... ............

Fill 1

|-------------------| |------------------|--------------|
|-------------------| |------------------|--------------|
|--------10-12------| |--------10-12---13b14---10-------|
|----12----------12-| X6|----12------------|-----10-------|
|-------------------| |------------------|------------3-|
|-------------------| |------------------|------------3-|
|-------------------| |------------------|--------3-3-3-|

Rhy fig. 3 & 3A

Riff A:
Gtr. 1
|----------------------------------------------|
|----------------------------------------------|
|.--------------------------------------------.|
|----------------------------------------------|
|.--------------------------------------------.|
|----------------------------------------------|
|--0----0-11h12---0-----11h12---12----0--------|
| |
| | 6X
|Gtr. 2 Riff A1 |
|----------------------------------------------|
|----------------------------------------------|
|.--------------------------------------------.|
|.--------------------------------------------.|
|----------------------------------------------|
|--0----0-11h12---0-----11h12---12----0--------|



Verse:
Riff B
w/riff A1 2X
grad. bend
|------------------------------------|------------------------------------|
|------------------------------------|------------------------------------|
|.-----------------------------------|------------------------------------|
|------------------------------------|------------------------------------|
|.-----------------------------------|------------------------------------|
|------------------------------------|------------------------------------|
|--0------0--0-------/14-(14)b15-----|----------(15)b16~~~~~~~~~~~(14)\---|

|------------------------------------|------------------------------------|
|------------------------------------|------------------------------------|
|------------------------------------|-----------------------------------.|
|------------------------------------|------------------------------------|
|------------------------------------|-----------------------------------.|
|------------------------------------|------------------------------------|
|--0------0--0------/12b13-----------|--(13)---------------------r(12)----|


Gtr. 1 pm.......................................
|----------------------------------------------|----------------------------------------------|
|----------------------------------------------|----------------------------------------------|
|----------------------------------------------|----------------------------------------------|
|----------------------------------------------|----------------------------------------------|
|----------------------------------------------|----------------------------------------------|
|----------------------------------------------|----------------------------------------------|
|--0----0-11h12---0-----11h12---12----0--------|--0----0---3--2---0-----0----0---3--2---0-----|
| |
| |
|Gtr. 2 pm. |
|----------------------------------------------|----------------------------------------------|
|----------------------------------------------|----------------------------------------------|
|----------------------------------------------|----------------------------------------------|
|----------------------------------------------|----------------------------------------------|
|----------------------------------------------|--0---------------------0---------------------|
|--0----0-11h12---0-----11h12---12----0--------|--0---------------------0---------------0-----|


Interlude:

Yeah! Yeah! Yeah! Yeah! Yeah! Yeah!
|-------------------------------------|-------------------------------------|-------------------------------------|
|-------6----------------6------------|-------6----------------6------------|-------6----------------6------------|
|-------8b10-------------8b10---------|-------8b10-------------8b10---------|-------8b10-------------8b10---------|
|-------------------------------------|-------------------------------------|-------------------------------------|
|--0----------------0-----------------|--0----------------0-----------------|--0----------------0-----------------|
|--0----------------0-----------------|--0----------------0-----------------|--0----------------0-----------------|
|--0-----------0----0------------0----|--0-----------0----0------------0----|--0-----------0----0------------0----|
| pm pm pm pm pm pm |
| |
| |
|-------------------------------------|-------------------------------------|-------------------------------------|
|-------------------------------------|-------------------------------------|-------------------------------------|
|---------10--(10)\-------------------|-------------------------------------|---------10--(10)\-------------------|
|---------10--(10)\-------------------|-------------------------------------|---------10--(10)\-------------------|
|-------------------------------------|-------------------------------------|-------------------------------------|
|--0----------------0------------0----|--0-----------0----0------------0----|--0----------------0------------0----|
pm pm pm

Yeah! Yeah!
|-------------------------------------|----------------------------------------------|
|-------6----------------6------------|----------------------------------------------|
|-------8b10-------------8b10---------|----------------------------------------------|
|-------------------------------------|----------------------------------------------|
|--0----------------0-----------------|----------------------------------------------|
|--0----------------0-----------------|----------------------------------------------|
|--0-----------0----0------------0----|--0----0-11h12---0-----11h12---12----0--------|
| pm pm |
| |
| |
|-------------------------------------|----------------------------------------------|
|-------------------------------------|----------------------------------------------|
|-------------------------------------|----------------------------------------------|
|-------------------------------------|----------------------------------------------|
|-------------------------------------|----------------------------------------------|
|--0-----------0----0-----------------|--0----0-11h12---0-----11h12---12----0--------|
pm

Back to Verse
{Gtr. 1 w/Riff B }
{Gtr. 2 w/Riff A1 (4 times)}

Gtr. 1 w/Riff A (2 times)

Rhy. Fig. 4A:

|------------------|------------------|------------------|------------------|
|------------------|------------------|------------------|------------------|
|------------------|------------------|------------------|------------------|
|------------------|------------------|------------------|------------------|
|--0-----0-----0---|--0-----0---1--2--|--0-----0-----0---|--0-----0---1--2--|
|--0-----0-----0---|--0-----0---1--2--|--0-----0-----0---|--0-----0---1--2--|
|--0-----0-----0---|--0-----0---1--2--|--0-----0-----0---|--0-----0---1--2--|
| pm pm |
| |
|------------------|------------------|------------------|------------------|
|------------------|------------------|------------------|------------------|
|------------------|------------------|------------------|------------------|
|------------------|------------------|------------------|------------------|
|--0-----0-----0---|--0-----0---1--2--|--0-----0-----0---|--0-----0---1--2--|
|--0-----0-----0---|--0-----0---1--2--|--0-----0-----0---|--0-----0---1--2--|
pm pm


Pre-Chorus: (We the people)

|-----------------------|-----------------------|-----------------------|-----------------------|
|-----------------------|-----------------------|-----------------------|-----------------------|
|-----------------------|-----------------------|-----------------------|-----------------------|
|-----------------------|-----------------------|-----------------------|-----------------------|
|-----------------------|-----------------------|-----------------------|-----------------------|
|-----------------------|-----------------------|-----------------------|-----------------------|
|--0--------------------|--------5p3-5-0-0---5--|--5p3-5-0-0------------|--------5p3-5-0-0---5--|
| |
| |
|-----------------------|-----------------------|-----------------------|-----------------------|
|-----------------------|-----------------------|-----------------------|-----------------------|
|-----------------------|-----------------------|-----------------------|-----------------------|
|-----------------------|-----------------------|-----------------------|-----------------------|
|-----------------------|------------5-0-0------|------5-0-0------------|------------5-0-0------|
|-----------------------|--------5p3-5-0-0---5--|--5p3-5-0-0------------|--------5p3-5-0-0---5--|


Riff C:
|------------------------|--------------------------|
|------------------------|--------------------------|
|------------------------|--------------------------|
|------------------------|--------------------------|
|------------------------|--------------------------|
|------------------------|--------------------------|
|-5p3-5-0-0---5p3-5-0-0--|-5p3-5-0-0----5p3-5-0-0-5-|
| |
|Riff C1 |
|------------------------|--------------------------|
|------------------------|--------------------------|
|------------------------|--------------------------|
|------------------------|--------------------------|
|-----5-0-0-------5-0-0--|-----5-0-0--------5-0-0---|
|-5p3-5-0-0---5p3-5-0-0--|-5p3-5-0-0----5p3-5-0-0-5-|

Gtrs. 1&2 w/Riff C & C1
Gtrs. 1&2 w/Rhy. Figs. 4 & 4A

Chorus
Gtrs. 1&2 w/Rhy. Figs. 1 & 1A (2 times)

Interlude
Gtrs. 1&2 w/Rhy. Figs. 3 & 3A (2 times)
First ending: w/Riffs A & A1 (3 times)
Second ending: w/ Riffs A & A1 (1st. meas.)

Gtr.
|----------------------------|--------------------------------|
|----------------------------|--------------------------------|
|.---------------------------|-------------------------------.|
|----------------------------|--------------------------------|
|.---------------------------|---------------0-0--0---1-1--1-.|
|----------------------------|---------------0-0--0---1-1--1--|
|----------------------------|---------------0-0--0---1-1--1--|
| pm............... |
|Gtr. 2 |
|----------------------------|--------------------------------|
|----------------------------|--------------------------------|
|.---------------------------|-------------------------------.|
|.-----------3---------------|------------3------------------.|
|---------------0-0--0---1---|---------------0-0--0---1-1--1--|
|-0---0--/4-----0-0--0---1---|-0---0--/4-----0-0--0---1-1--1--|
pm...... pm...............

Gtr. 1 Rhy. Fig. 5

|----------------------------|--------------------------------|
|----------------------------|--------------------------------|
|----------------------------|--------------------------------|
|----------------------------|--------------------------------|
|-0---0---0--0--0----0---1---|-0---0---0--0--0-0--0---1-1--1--|
|-0---0---0--0--0----0---1---|-0---0---0--0--0-0--0---1-1--1--|
|-0---0---0--0--0----0---1---|-0---0---0--0--0-0--0---1-1--1--|
| pm pm pm pm............. | 4X
| |
|----------------------------|--------------------------------|
|----------------------------|--------------------------------|
|.---------------------------|-------------------------------.|
|.-----------3---------------|------------3------------------.|
|---------------0-0--0---1---|---------------0-0--0---1-1--1--|
|-0---0--/4-----0-0--0---1---|-0---0--/4-----0-0--0---1-1--1--|
pm.... pm...............

Rhy. Fig. 6
Gtr. 1
|--------------------------------|--------------------------------|
|--------------------------------|--------------------------------|
|--------------------------------|--------------------------------|
|--------------------------------|--------------------------------|
|--0--3--3-----3--3--X--X--X--X--|-0--3--3-----3--3--X--X--X--X---|
|--0--3--3-----3--3--X--X--X--X--|-0--3--3-----3--3--X--X--X--X---|
|--0--3--3--0--3--3--X--X--X--X--|-0--3--3--0--3--3--X--X--X--X---|
| PM PM |
|Rhy. Fig. 6A |
|Gtr. 2 |
|--------------------------------|--------------------------------|
|--------------------------------|--------------------------------|
|--------------------------------|--------------------------------|
|--------------------------------|--------------------------------|
|--0--3--3-----3--3--------------|-0--3--3-----3--3---------------|
|--0--3--3--0--3--3--------------|-0--3--3--0--3--3---------------|

End Rhy Fig. 6 & 6A
|--------------------------------|--------------------------------|
|--------------------------------|--------------------------------|
|--------------------------------|--------------------------------|
|--------------------------------|--------------------------------|
|--0--3--3-----3--3--X--X--X--X--|-0--3--3-----3--3-------3-------|
|--0--3--3-----3--3--X--X--X--X--|-0--3--3-----3--3-------3-------|
|--0--3--3--0--3--3--X--X--X--X--|-0--3--3--0--3--3--3h5--3-------|
| |
| |
| |
|--------------------------------|--------------------------------|
|--------------------------------|--------------------------------|
|--------------------------------|--------------------------------|
|--------------------------------|--------------------------------|
|--0--3--3-----3--3--------------|-0--3--3-----3--3-------3-------|
|--0--3--3--0--3--3--------------|-0--3--3--0--3--3--3h5--3-------|

Bridge: (This is the cloud that swallows trust)
Gtr. 1 w/Rhy Fig. 6 1st time, Gtr. 2 tacet
2nd time, Gtr. 2 w/Rhy Fig. 6A


|---------------------------------|-------------------------------------|
|---------------------------------|-------------------------------------|
|.---8---X-X--7---X-X--5---X-X--7-|--X-X--8---X-X--7---X-X--5---X-X--7--|
|----8---X-X--7---X-X--5---X-X--7-|--X-X--8---X-X--7---X-X--5---X-X--7--|
|.---6---X-X--5---X-X--3---X-X--5-|--X-X--6---X-X--5---X-X--3---X-X--5--|
|---------------------------------|-------------------------------------|
|---------------------------------|-------------------------------------|
| (Ominous, I'm in us......)
|---------------------------------|-------------------------------------|
|---------------------------------|-------------------------------------|
|.-7--------------7---------------|--7-----------------7----------------|
|.-7--------------7---------------|--7-----------------7----------------|
|--5--------------5---------------|--5-----------------5----------------|
|--0-----0----0---0--------0----0-|--0--------0----0---0--------0----0--|
pm.... pm.... pm..... pm....

__________1.________________ ___________2.______________
| | |
|------------------------------------|----------------------------|---------------------------|
|------------------------------------|----------------------------|---------------------------|
|--X-X--9---X-X--7---X-X--5---X-X--7-|---------(7)\\X//X---------.|---(7)-----(7)\\X//X-------|
|--X-X--9---X-X--7---X-X--5---X-X--7-|---------(7)\\X//X----------|---(7)-----(7)\\X//X-------|
|--X-X--7---X-X--5---X-X--3---X-X--5-|---------(5)\\X//X---------.|---(5)-----(5)\\X//X-----0-|
|------------------------------------|----------------------------|-------------------------0-|
|------------------------------------|----------------------------|-------------------------0-|
|
|
|------------------------------------|----------------------------|---------------------------|
|------------------------------------|----------------------------|---------------------------|
|--5-----------------5---------------|-----------------5---------.|---5---------------5-------|
|--4-----------------4---------------|-----------------4---------.|---4---------------4-------|
|--5-----------------5---------------|-----------------5----------|---5---------------5-------|
|--0-------0-----0---0--------0----0-|----------0---0--0---0---0--|---0--------0---0--0--0--0-|
pm...... pm.... pm... pm... pm... pm...

Interlude
Gtr. 1 w/Rhy Fig. 5
|-------------------|
|-------------------|
|-------------------|
|--7-7--7-----------|
|--7-7--7---1-1--1--|
|--5-5--5---1-1--1--|
|--0-0--0---1-1--1--|
| pm............. |
Gtr. 2: | |
|----------------------------|--------------------------------|-------------------|
|----------------------------|--------------------------------|-------------------|
|.---------------------------|-------------------------------.|-------------------|
|.-----------3---------------|------------3------------------.|-------------------|
|---------------0-0--0---1---|---------------0-0--0---1-1--1--|--0-0--0---1-1--1--|
|-0---0--/4-----0-0--0---1---|-0---0--/4-----0-0--0---1-1--1--|--0-0--0---1-1--1--|
pm.... pm............. pm.............


Gtr. 1 w/Riff C (1st Meas.)
|------------------------------------|
|------------------------------------|
|------------------------------------|
|-7-7--7------------7-7--7-----------|
|-7-7--7---1-1--1---7-7--7---1-1--1--|
|-5-5--5---1-1--1---5-5--5---1-1--1--|
|-0-0--0---1-1--1---0-0--0---1-1--1--|
| |
Gtr. 2 | |
|------------------------|------------------------------------|
|------------------------|------------------------------------|
|------------------------|------------------------------------|
|------------------------|------------------------------------|
|-----5-0-0-------5-0-0--|-0-0--0---1-1--1---0-0--0---1-1--1--|
|-5p3-5-0-0---5p3-5-0-0--|-0-0--0---1-1--1---0-0--0---1-1--1--|


Gtrs. 1 & 2:w/Riffs C & C1 (1 1/2 times)

Chorus
Gtrs. 1 & 2: w/ Rhy Figs. 1 & 1A (2 times)

Outro:
Gtrs. 1 & 2: w/Rhy. Figs. 3 & 3A (2 times)

Gtrs. 1 & 2: w/ Riffs A & A1

Gtr. 1*:
|----------------------------------------|----------------------------------------|
|--/17-17-17-17---------/17-17----17-----|--/17-17-17-17---------/17-17----17-----|
|----------------16--16--------16----16--|----------------16--16--------16----16--|
|----------------------------------------|----------------------------------------|
|----------------------------------------|----------------------------------------|
|----------------------------------------|----------------------------------------|
|----------------------------------------|----------------------------------------|
*turn your tone about half-way down
and your pick-up switch to the middle or far left, your choice.

Like us on Facebook.....
-> Loading Time :0.0216 sec