Slaughterama Tabs & Lyrics by GWAR

Slaughterama

guitar tabs lyrics

GWAR

Album : Scumdogs of the Universe thrash metal PlayStop


I took some parts from the Slaughterama tab by Noel Stanko and revamped them.

This is my first tab I've submitted.

Lansain - Lansain|at|gmail.com


[Intro With Bass and Drums]



Part I
E-----------------------------|
B-----------------------------|
G-----------------------------|
D-----------------------------| X8
A---00-9-0-10-0-11-0-12\7-----|
E---00-7-0--8-0--9-0-10\5-----|
PM .. . . .



Part II
e---------------------------|
B---------------------------|
G---------------------------|
D----3---3---3---2p0--------| X4
A------2---2---2-----3p2----|
E---------------------------|



Part III
e---------------------|
B---------------------|
G---------------------|
D--2-0------2-0-------|
A------3-2------3-2---|
E---------------------|



Part IV
e--------------------------------------------------|
B---------------------------------------------5~.--|
G---------------------------------------------4~.--|
D--2p0------2p0------2p0------2p0-------------3~.--|
A------3p2------3p2------3p2------3p2-0------------|
E--------------------------------------------------|



Part V
e-------------------------------------------------|
B-------------------------------------------------|
G-------------------------------------------------|
D-------------------------------------------------| X4
A---8-7-000-10-11-000--6-5-000--9-10-11-9-10-11---|
E---6-5-000--8--9-000--6-5-000--7--8--9-7--8--9---|
PM .. .. ..



Part V (Cont.)
e---------------------|
B---------------------|
G---------------------|
D---------------------|
A--14-0-0-13-0-0-12~--|
E--12-0-0-11-0-0-10~--|
PM . . . .



Repeat the whole thing two more times, then...


e---------------------------|
B---------------------------|
G---------------------------|
D--------------4.-4.-4.-4.--|
A--12~\9~/10~--2.-2.-2.-2.--|
E--10~\7~/-8~---------------|


Outro
e-------------------------------------------------------|
B-------------------------------------------------------|
G-------------------------------------------------------|
D-------4~-3~--4.-4.-4.-4.------4~-3~-------------------| X8
A----2~-2~-1~--2.-2.-2.-2.---2~-2~-1~--9-10-11-9-10-11--|
E----0~----------------------0~--------7--8--9-7--8--9--|



End with:

e---------------------|
B---------------------|
G---------------------|
D---------------------|
A--14-0-0-13-0-0-12~--|
E--12-0-0-11-0-0-10~--|
PM . . . .

Key:
#. (Like --4.--) means to let the note ring, but cut it short by muting it.

Like us on Facebook.....
-> Loading Time :0.0093 sec