Simple Song Chords & Lyrics by Miley Cyrus

Simple Song

guitar chords lyrics

Miley Cyrus

Album : Can’t Be TamedPlayStop


Simple Song

Key: C

Tuning: Standard EADGBe

Chords used:
Am - x02210
G - 320003
F - 133211

C - x32010
Dm - xx0231
D - xx0232
Am - x02210


Intro: C--- x3


Verse 1:
Am
Wake up here i go
G
Cram it all down my throat
F
Stomach so full
G
That i wish i could choke
Am G
Seven am my heads
F G
Already in a spin
Just as soon
Am
I'm out that door bam
G
Hits me like a ton
F
Of those red bricks
G
Can't dig myself
Am
Out of this highest
G F
ditch This madness


Refrain:
G
I swear sometimes
F
I can't tell which way is up
Which way is down
G
It's all up in my face
Need to push it away
F(hold)
Some body push it away
So all that i can hear



Chorus 1:
C Dm F C
Is a simple song
C Dm F C
Sing along now
C Dm
La, la, la, la la
F C
La, la, la, la
C Dm
La, la, la, la la
F C
La, la, la, la



Piano Riff:
e|-12-10-8-10-----12-10-8-8-|
B|------------10------------|
G|--------------------------|
D|--------------------------| x4
A|--------------------------|
E|--------------------------|


Verse 2:
Am
Mid day sun
G
Beating on the concrete
F
Burning up my feet
G
Too many cars on the street
Am G
The noise the red the green
F G
It makes me wanna scream
5 o'clock knocks
Am G
Bumper on bumper on bumper
F
Horns honking nobodys
G
Looking but everybody's talking
Am G F
It's another day on this highway


(Repeat Refrain 1 and Chorus 1)


Interlude:
C Dm F G
Hey
Sing along now
C Dm F G
Sing along
C Dm F G


Bridge:
Em Am
What i'd give to turn it off
F
Make it stop make it stop
Gotta make it stop
(hold)
So all that i can hear


Chorus 2:
C Dm F C
Is a simple song
C Dm F C
Sing along now
C D
La, la, la, la la
F C
La, la, la, la
C D
La, la, la, la la
F C
La, la, la, la
C D
La, la, la, la la
F C
La, la, la, la
C D
La, la, la, la la
F C
La, la, la, la



Piano Riff:
e|-24-22-20-----24-22-20-20-|
B|----------22--------------|
G|--------------------------|
D|--------------------------| x4
A|--------------------------|
E|--------------------------|

e|-12-10-8-10-----12-10-8-8-|
B|------------10------------|
G|--------------------------|
D|--------------------------| x2
A|--------------------------|
E|--------------------------|

Like us on Facebook.....
-> Loading Time :0.0128 sec