Sickness Tabs & Lyrics by Agnostic Front

Sickness

guitar tabs lyrics

Agnostic Front

Album : Riot, Riot, Upstart hardcore punk PlayStop


Verse

|--------------|
|--------------|
|------99-7777-|
|99999-99-7777-| x4
|99999-77-5555-|
|77777---------|

Corus


|---------------------------------|
|---------------------------------|
|77777777-55555555----------------|
|77777777-55555555-555555555555555|
|55555555-33333333-555555555555555|
|------------------333333333333333|

1st Solo

|----------------------------|
|7777777---------------------|
|--------9b97-------9b97--7--|
|------------97---79----97-9-|
|--------------9-9-----------|
|----------------------------|

repeat verse and corus

2nd Solo

|77777777777777777777777------------7---------101010101010101010101010101010-|
|-----------------------9b97--7-5--7-97--7-5--9-9-9-9-9-9-9-9-9-9-9-9-9-9-9--|
|---------------------------97----5----97----5-------------------------------|
|----------------------------------------------------------------------------|
|----------------------------------------------------------------------------|
|----------------------------------------------------------------------------|

cba to do the rest all the same notes as above, n you aint deaf so you can work it out.

Like us on Facebook.....
-> Loading Time :0.0199 sec