Scattered Remains, Splattered Brains Tabs & Lyrics by Cannibal Corpse

Scattered Remains, Splattered Brains

guitar tabs lyrics

Cannibal Corpse

Album : Eaten Back to Life death metal PlayStop


Cannibal Corpse - Scattered Remains,Splattered Brains
Album:Eaten Back to Life(1990)
Tabbed by:Jordan Brooks(weinersandbeans@hotmail.com)

h=hammer on
p=pull off
pm=palm mute
/=slide
ph=pinch harmonic


|-------------------------|
|-------------------------|
|-----12/11---11/10---10/-| Riff A 4x
|-2---12/11---11/10---10/-|
|-2---10/9-----9/8-----8/-|
|-0---------0-------0-----|
pm .


|-------------------------------|
|-------------------------------|
|-----------12/11---11/10---10/-| Riff B 3x
|-2---2222--12/11---11/10---10/-|
|-2---2222--10/9-----9/8-----8/-|
|-0---0000--------0-------0-----|
pm.. pm .


|---------------------------------|
|---------------------------------|
|-----------12/11---11/10---10/---| Riff C 1x
|-2---2222--12/11---11/10---10/-2-|
|-2---2222--10/9-----9/8-----8/-2-|
|-0---0000--------0-------0-----0-|
pm.. pm .


|-------------------|
|-------------------|
|-------------------| Riff D 8x
|----------------99-|
|-887788---88778877-|
|-66556600-66556677-|


3x 1x 3x 1x
|----------|---------|----------|---------|
|----------|---------|----------|---------|
|----------|---------|----------|---------| Riff E1 1x
|-22223333-|-------0-|-22223333-|-3p1p0-3-|
|-00001111-|-0h1h3---|-00001111-|-------1-|
|----------|---------|----------|---------|


3x 1x 2x 3x 1x
|----------|---------|----------|-------|---|
|----------|---------|----------|-------|---|
|----------|---------|----------|-------|---| Riff E2 1x
|-22223333-|-------0-|-22223333-|-3p1p0-|-3-|
|-00001111-|-0h1h3---|-00001111-|-------|-1-|
|----------|---------|----------|-------|---|


3x 1x 3x 1x
|----------|---------|----------|---------|
|----------|---------|----------|---------|
|----------|---------|----------|---------| Riff E1 1x
|-22223333-|-------0-|-22223333-|-3p1p0-3-|
|-00001111-|-0h1h3---|-00001111-|-------1-|
|----------|---------|----------|---------|


3x 1x 2x 3x 1x
|----------|---------|----------|-------|---|
|----------|---------|----------|-------|---|
|----------|---------|----------|-------|---| Riff E2 1x
|-22223333-|-------0-|-22223333-|-3p1p0-|-3-|
|-00001111-|-0h1h3---|-00001111-|-------|-1-|
|----------|---------|----------|-------|---|



|-----------------------------------|
|-----------------------------------|
|-------------9p8---------------9p8-| Guitar one
|-9-10-10p8-7-----8-9-10-10p8-7-----|
|-7-8---------------7-8-------------|
|-----------------------------------|
| pm. pm. | Riff F 1x
| |
|-----------------------------------|
|-----------------------------------|
|-------------------3---------------|
|-2-----------------3---------------| Guitar two
|-2-----------------1---------------|
|-0-----------------1---------------|



|-----------------------------------|
|-----------------------------------|
|-------------9p8---------------9p8-| Guitar one
|-9-10-10p8-7-----8-9-10-10p8-7-----|
|-7-8---------------7-8-------------|
|-----------------------------------|
| pm. pm. | Riff G 1x
| |
|-----------------------------------|
|-----------------------------------|
|-----------------------------------|
|-3-----------------2---------------| Guitar two
|-3-----------------2---------------|
|-1-----------------0---------------|



|-----------------------------------|
|-----------------------------------|
|-------------9p8---------------9p8-| Riff H (Both Guitars) 9x
|-9-10-10p8-7-----8-9-10-10p8-7-----|
|-7-8---------------7-8-------------|
|-----------------------------------|
pm. pm.


|-------------------|
|-------------------|
|-------------------| Riff D 8x
|----------------99-|
|-887788---88778877-|
|-66556600-66556677-|



3x 1x 3x 1x
|----------|---------|----------|---------|
|----------|---------|----------|---------|
|----------|---------|----------|---------| Riff E1 1x
|-22223333-|-------0-|-22223333-|-3p1p0-3-|
|-00001111-|-0h1h3---|-00001111-|-------1-|
|----------|---------|----------|---------|


3x 1x 2x 3x 1x
|----------|---------|----------|-------|---|
|----------|---------|----------|-------|---|
|----------|---------|----------|-------|---| Riff E2 1x
|-22223333-|-------0-|-22223333-|-3p1p0-|-3-|
|-00001111-|-0h1h3---|-00001111-|-------|-1-|
|----------|---------|----------|-------|---|



|-----------------------------------------------------------------------------|
|-----------------------------------------------------------------------------|
|-----------------------------------------------------------------------33-33-| Riff I1 2x
|-3----5----6----5------------------------3----5----6----5--------------33-33-|
|-1-00-3-00-4-00-3----3----6----5----3----1-00-3-00-4-00-3----3----6----11-11-|
|------------------00-1-00-4-00-3-00-1-00------------------00-1-00-4-00-11-11-|



|-------------------------------------|
|-------------------------------------|
|-------------------------------33-33-| Riff I2 2x
|-3----5----6----5--------------33-33-|
|-1-00-3-00-4-00-3----3----6----11-11-|
|------------------00-1-00-4-00-11-11-|

Like us on Facebook.....
-> Loading Time :0.0130 sec