Rock n' Roll Machine Tabs & Lyrics by Triumph

Rock n' Roll Machine

guitar tabs lyrics

Triumph

Album : King Biscuit Flower Hour: Triumph hard rock PlayStop


Ok everbody this is my new updated tab. enjoy.

e|----------------------------------|
b|----------------------------------| x-muffed notes
g|----------------------------------| repeat
d|-12-xxx-10------12\-15-14---------|
a|-10-xxx-8--10xx-10\-13-12--15-----|
e|----xxx----8-xx------------13-----|


e|-------------------------------------------------|
b|-------------------------------------------------|
g|-------------------------------------------------|
d|-12-xxx-10------12\-15-14---------12-10----------|
a|-10-xxx-8--10xx-10\-13-12--15-----10-8-10-10-10--|
e|----xxx----8-xx------------13-----------8-8-8----|

e|-----------------------------------|
b|-----------------------------------|
g|-----------------------------------| repeat 4 times then
d|------------------------------3-------|
a|-3/55555--3/555555--3/555555--1--3----|
e|-1/33333--1/333333--1/333333---0-1----|
pm pm pm


e|----------------------|
b|----------------------|
g|----------------------|
d|3---3---3---3---------|
a|1-3-1-3-1-3-1---------|
e|--1---1---1-----------|



e|-------------------------------------------|---------------------------|
b|-------------------------------------------|---------------------------|
g|-------------------------------------------|---------------------------|
d|-5555/8----------------555555\3------------|--5555/8--------------3----|
a|-3333/6----6p5h7p5h----333333\1--1p0h1p0h--|--3333/6---6p5h7p5h---1-3--|
e|--------------------6---------------------1|--------------------6---1--|
pm pick fast
I'm not really sure about this riff im pretty sure its right.
e|------------------------
b|------------------------
g|------------------------ drum fill
d|-------------------33----
a|-3---------0-1-2-0-11----
e|--0-1-2-3-4--------------





e|-----------------------------------|
b|-----------------------------------|
g|-----------------------------------| repeat 4 times
d|------------------------------3-------|
a|-3/55555--3/555555--3/555555--1--3----|
e|-1/33333--1/333333--1/333333---0-1----|
pm pm pm

e|----------------------|
b|----------------------|
g|----------------------|
d|3---3---3---3---------|
a|1-3-1-3-1-3-1---------|
e|--1---1---1-----------|



e|-------------------------------------------|---------------------------|
b|-------------------------------------------|---------------------------|
g|-------------------------------------------|---------------------------|
d|-5555/8----------------555555\3------------|--5555/8--------------3----|
a|-3333/6----6p5h7p5h----333333\1--1p0h1p0h--|--3333/6---6p5h7p5h---1-3--|
e|--------------------6---------------------1|--------------------6---1--|
pm pick fast







e|------------------------
b|------------------------
g|------------------------ drum fill
d|-------------------33----
a|-3---------0-1-2-0-11----
e|---0-1-2-3-4--------------





e|----------------------------------|
b|----------------------------------| x-muffed notes
g|----------------------------------|
d|-12-xxx-10------12\-15-14---------|
a|-10-xxx-8--10xx-10\-13-12--15-----|
e|----xxx----8-xx------------13-----|


e|-------------------------------------------------|
b|-------------------------------------------------|
g|-------------------------------------------------|
d|-12-xxx-10------12\-15-14---------12-10----------|
a|-10-xxx-8--10xx-10\-13-12--15-----10-8-10--------|
e|----xxx----8-xx------------13-----------8--------|



e|----------------|----------------------------| then just swich back and
b|----------------|----------------------------|forth REALLY FAST.
g|----------------|----------------------------|
d|10-8----8-6-----|-------3-3-3-3-3------------|
a|8--6-8--6-4--6--|55555--0h1p0h1p0--5-3-555555|
e|-----6-------4--|33333-------------3\1/333333|
pm.... pm.....
pick fast




solo time repeat
e|-----------------------------------------------------------------------|
b|-------------------------------|15-15----15-15-------------------------|
g|-------------------------------|15-15----15-15-------------------------|
d|33333333333-55555555555555-----|15-15-17-15-15-17-15-171717171717171717|
a|11111111111-33333333333333-----|---------------------------------------|
e|-----------------------------------------------------------------------|
trem pick trem pick FAST!!!

i'm working on the solo.

Like us on Facebook.....
-> Loading Time :0.0087 sec