Return of the Phantom Stranger Tabs & Lyrics by Rob Zombie

Return of the Phantom Stranger

guitar tabs lyrics

Rob Zombie

Album : Hellbilly Deluxe: 13 Tales of Cadaverous Cavorting Inside the Spookshow InternationalPlayStop


Return of the Phantom Stranger
By: Rob Zombie
From: HellBilly Deluxe
Tabbed By: Mike Gagnon

Tune from high to low (CGCFAD)

Verse

D-------------------

A-------------------
F-------------------
C-2-2-2-2-2-2-2-2-2-
G-2-2-2-2-2-2-2-2-2-
C-2-2-2-2-2-2-2-2-2-

This is played in the
middle somewhere.

D-------------------
A-------------------
F-------------------
C-0-0-0-1~-0-0-0-1~-
G-0-0-0-1~-0-0-0-1~-
C-0-0-0-1~-0-0-0-1~-

That is it!!!!

Like us on Facebook.....
-> Loading Time :0.0280 sec