Real Thing Tabs & Lyrics by Alice In Chains

Real Thing

guitar tabs lyrics

Alice In Chains

Album : Facelift grunge PlayStop


-------------------------------------------------------------------------------
Real Thing – Alice In Chains
-------------------------------------------------------------------------------

Tabbed by: brian_s
Email: [email protected]

Tuning: D# G# C# F# A# D# - half step down


Main riff:
D#---------------------------------------------------------------------|
A#---------------------------------------------------------------------|
F#---------------------------------------------------------------------|
C#-------2-0----------(2)--2-0----------(2)--2-0----------(2)--2-0-----|
G#---------------------------------------------------------------------|
D#---0----------0-1-0-------------0-1-0-------------0-1-0--------------|


Pre chorus riff: Even if you say...
D$---------------------------------------------------------------------|
A#---------------------------------------------------------------------|
F#----------------------------------------------------------------2b---|
C#---2/4--4-4--4-4-----2/4--4-4--4-4------2/4--4-4--4-4-----4-----2b---|
G#---0/2--2-2--2-2-----0/2--2-2--2-2------0/2--2-2--2-2-----2----------|
D#---------------------------------------------------------------------|


Chorus:
F#5 G5


Fill 1 (comes in at 00:14):
D$---------------------------------------------------------------------|
A#------------------------2br-0----------------------------------------|
F#------------------------2br-0----------------------------------------|
C#------2-0----------------------2-------------------------------------|
G#---------------------------------------------------------------------|
D#---0----------0-1-0--------------------------------------------------|


Fill 2 (comes in at 01:03):
D$---------------------------------------------------------------------|
A#------------------------5-3-0----------------------------------------|
F#------------------------------3-2------------------------------------|
C#------2-0-------------------------2----------------------------------|
G#---------------------------------------------------------------------|
D#---0----------0-1-0--------------------------------------------------|

SONG ORDER:

INTRO:
Main riff 7x
Fill 1 00:14
Main riff 5x


VERSE 1:
Main riff 6x
Pick scrape (on „just give me another blast“)


PRE CHORUS:
Main riff 8x
Pre chorus riff


BETWEEN THE PRE CHORUS AND THE 2nd VERSE:
Main riff 3x
Fill 2 01:03


VERSE 2:
Main riff 8x


PRE CHORUS:
Main riff 8x
Pre chorus riff


CHORUS:
Chorus riff 3x
Main riff 4x
Chorus riff 3x


BETWEEN THE CHORUS AND THE 3rd VERSE:
Main riff 4x


VERSE 3:
Main riff 8x


PRE CHORUS:
Main riff 8x
Pre chorus riff


CHORUS:
Chorus riff 3x
Main riff 4x
Chorus riff 3x
Main riff 8x

b - bend

Like us on Facebook.....
-> Loading Time :0.0410 sec