Rambozo the Clown Tabs & Lyrics by Dead Kennedys

Rambozo the Clown

guitar tabs lyrics

Dead Kennedys

Album : Bedtime for Democracy punk PlayStop


Dead Kennedys - Rambozo the Clown, Off The Album Bedtime for Democracy In 1986



got a brand new toy
e|------------------------------------------|
B|------------------------------------------|
G|------------------------------------------|
D|------------------------------------------|
A|-77-44-777-999-91197-44-------------------|

E|-55-22-555-777-79-75-22-------------------|


e|-----------------------------------------------|
B|-----------------------------------------------|
G|-----------------------------------------------|
D|-----------------------------------------------|
A|-77-44-777-999-9999764444-44-------------------|
E|-55-22-555-777-7777542222-22-------------------|


e|------------------------------------------|
B|------------------------------------------|
G|------------------------------------------|
D|------------------------------------------|
A|-774-4-4-4---------774-4------------------|
E|-552-2-2-2---------552-2------------------|

GI Joe in the cereal bowl
e|----------------------------------------------------------|
B|----------------------------------------------------------|
G|----------------------------------------------------------|
D|----------------------------------------------------------|
A|-9999977999-7x444-7x444------9999977999-7x444-7x444-------|
E|-7777755777-5x222-5x222------7777755777-5x222-5x222-------|


e|--------------------------------------------|
B|--------------------------------------------|
G|--------------------------------------------|
D|--------------------------------------------|
A|-9999977999-7-4-7-2-------------------------|
E|-7777755777-5-2-5-0-------------------------|


e|------------------------------------------------------|
B|------------------------------------------------------|
G|------------------------------------------------------|
D|------------------------------------------------------|
A|-7774----7774----7774----7---2------------------------|
E|-5552----5552----5552----5---0------------------------|


e|--------------------------------------------|
B|--------------------------------------------|
G|--------------------------------------------|
D|-----------------------------11-------------|
A|-7774----7774----7774----7---9--------------|
E|-5552----5552----5552----5------------------|

war is sexy
e|------------------------|
B|------------------------|
G|------------------------|
D|-77-9-7-55--------------|
A|-55-7-5-33--------------|
E|------------------------|




Like us on Facebook.....
-> Loading Time :0.0182 sec