R U Still in 2 It Tabs & Lyrics by Mogwai

R U Still in 2 It

guitar tabs lyrics

Mogwai

Album : Young Team post-rock PlayStop


-------------------------------------------------------------------------------
MOGWAI - "R U Still in 2 It"
-------------------------------------------------------------------------------

Tabbed by: thom

This is the ostinato of "R U Still in 2 It", played with a Telecaster through a BOSS TR-2.

Cadd9 Asus2
> > > > > > > > > > > >

E S S E S E S S S S S E E S S E S E S S S S S S S
E||---------------------------------|----------------------------------|
B||------------3-------------3------|----------------------------------|
G||--------0--------0----0-------0--|------------4-------------4-------|
D||---------------------------------|--------2--------2----2-------2---|
A||--3-------3----3----3---3---3----|--0-------0----0----0---0---0---0-|
E||---------------------------------|----------------------------------|


Cadd9 Asus2
> > > > > > > > > >
E S S E S E S S S S S S S E S S E S E S S S S S S S
----------------------------------|----------------------------------||
------------3-------------3-------|----------------------------------||
--------0--------0----0-------0---|----------------------------------||
----------------------------------|--------2---2----2----2---3---2---||
--3-------3----3----3---3---3---3-|--0-------0----0----0---0---0---0-||
----------------------------------|----------------------------------||

Duration Legend
---------------
E - 8th
S - 16th

Tablature Legend
----------------
> - accentuded note

===============================================================================

Like us on Facebook.....
-> Loading Time :0.0119 sec