Planets Tabs & Lyrics by Avenged Sevenfold

Planets

guitar tabs lyrics

Avenged Sevenfold

Album : Hail to the King heavy metal PlayStop


----------------------------------------------------------------------------
Planets
Avenged Sevenfold
----------------------------------------------------------------------------

Youíve got to love the lyrics in this song, especially that beautiful Pre-Chorus. Also,
letís not forget those incredible sweeping patterns in the guitar solo. I suggest novice
musicians skip the guitar solo. Enjoy!

Username: dkm817 (same on X box live)

Youtube Cover: http://www.youtube.com/watch?v=A2paGN9LgMw
Email: guitardrums@rockfan.com

Guitar 1 Rhythmic (D A D G B E)
Guitar 2 Lead (D A D G B E)

NOTE: This was exported off of guitar pro.

Guitar 1

E H Q E W W
E||----------------------|-------------------|-------------------|
B||----------------------|-------------------|-------------------|
G||----------------------|-------------------|-------------------|
D||--0--L--------L----L--|--L----------------|--1----------------|
A||--0--L--------L----L--|--L----------------|--1----------------|
D||--0--L--------L----L--|--L----------------|--1----------------|


W W H E Q.
-------------------|-------------------|---------------------|
-------------------|-------------------|---------------------|
-------------------|-------------------|---------------------|
--L----------------|--4----------------|--L--------L--1------|
--L----------------|--4----------------|--L--------L--1------|
--L----------------|--4----------------|--L--------L--1------|


W W W W
-------------------|-------------------|-------------------|-------------------|
-------------------|-------------------|-------------------|-------------------|
-------------------|-------------------|-------------------|-------------------|
--0----------------|--L----------------|--0----------------|--L----------------|
--0----------------|--L----------------|--0----------------|--L----------------|
--0----------------|--L----------------|--0----------------|--L----------------|


W W W
-------------------|-------------------|-------------------|
-------------------|-------------------|-------------------|
-------------------|-------------------|-------------------|
--1----------------|--L----------------|--4----------------|
--1----------------|--L----------------|--4----------------|
--1----------------|--L----------------|--4----------------|


H E Q. W W
---------------------|-------------------|-------------------|
---------------------|-------------------|-------------------|
---------------------|-------------------|-------------------|
--L--------L--1------|--0----------------|--L----------------|
--L--------L--1------|--0----------------|--L----------------|
--L--------L--1------|--0----------------|--L----------------|


PM PM PM PM PM PM PM PM PM PM PM PM PM PM PM PM
E E E E E E E E E E E E E E Q E E E E E E E E
--------------------------|-------------------------|--------------------------|
--------------------------|-------------------------|--------------------------|
--------------------------|-------------------------|--------------------------|
--0--0--0--0--0--0--0--0--|--0--0--0--0--0--0--0----|--1--1--1--1--1--1--1--1--|
--0--0--0--0--0--0--0--0--|--0--0--0--0--0--0--0----|--1--1--1--1--1--1--1--1--|
--0--0--0--0--0--0--0--0--|--0--0--0--0--0--0--0----|--1--1--1--1--1--1--1--1--|


PM PM PM PM PM PM PM PM PM PM PM PM PM
E E E E E E Q E E E E E E E E E E E E E Q.
-------------------------|--------------------------|------------------------|
-------------------------|--------------------------|------------------------|
-------------------------|--------------------------|------------------------|
--1--1--1--1--1--1--1----|--4--4--4--4--4--4--4--4--|--4--4--4--4--4--1------|
--1--1--1--1--1--1--1----|--4--4--4--4--4--4--4--4--|--4--4--4--4--4--1------|
--1--1--1--1--1--1--1----|--4--4--4--4--4--4--4--4--|--4--4--4--4--4--1------|


E E E E E E E E W
--------------------------|-------------------|-------------------|
--------------------------|-------------------|-------------------|
--------------------------|-------------------|-------------------|
--0-----------------------|-------------------|--0----------------|
--0-----------------------|-------------------|--0----------------|
--0-----------------------|-------------------|--0----------------|


W W W W
-------------------|-------------------|-------------------|-------------------|
-------------------|-------------------|-------------------|-------------------|
-------------------|-------------------|-------------------|-------------------|
--L----------------|--1----------------|--L----------------|--4----------------|
--L----------------|--1----------------|--L----------------|--4----------------|
--L----------------|--1----------------|--L----------------|--4----------------|


H E Q. W H E E Q
---------------------|-------------------|----------------------|
---------------------|-------------------|----------------------|
---------------------|-------------------|----------------------|
--L--------L--1------|--0----------------|--L--------L--1--1----|
--L--------L--1------|--0----------------|--L--------L--1--1----|
--L--------L--1------|--0----------------|--L--------L--1--1----|


PM PM PM PM PM PM PM PM PM PM PM PM
Q E E E E E E Q E E E E E E Q E E E E E E
-------------------------|-------------------------|-------------------------|
-------------------------|-------------------------|-------------------------|
-------------------------|-------------------------|-------------------------|
--0----0--0--0--0--0--0--|--L----0--0--0--0--0--0--|--4----4--4--4--4--4--1--|
--0----0--0--0--0--0--0--|--L----0--0--0--0--0--0--|--4----4--4--4--4--4--1--|
--0----0--0--0--0--0--0--|--L----0--0--0--0--0--0--|--4----4--4--4--4--4--1--|


PM PM PM PM PM PM PM PM PM PM PM
Q E E E S S Q Q E E E E E E Q E E E E E E
-------------------------|-------------------------|-------------------------|
-------------------------|-------------------------|-------------------------|
-------------------------|-------------------------|-------------------------|
--L----1--1--------------|--0----0--0--0--0--0--0--|--L----0--0--0--0--0--0--|
--L----1--1-----3-5-6----|--0----0--0--0--0--0--0--|--L----0--0--0--0--0--0--|
--L----1--1--0-----------|--0----0--0--0--0--0--0--|--L----0--0--0--0--0--0--|


PM PM PM PM PM PM PM PM PM PM PM
Q E E E E E E Q E E E S S Q Q E E E E E E
-------------------------|-------------------------|-------------------------|
-------------------------|-------------------------|-------------------------|
-------------------------|-------------------------|-------------------------|
--4----4--4--4--4--4--1--|--L----1--1--------------|--2----2--2--2--2--2--2--|
--4----4--4--4--4--4--1--|--L----1--1-----3-5-6----|--2----2--2--2--2--2--2--|
--4----4--4--4--4--4--1--|--L----1--1--0-----------|--2----2--2--2--2--2--2--|


PM PM PM PM PM PM PM PM
Q E E Q Q Q E E E E E E Q E E Q Q
-----------------------|-------------------------|-----------------------|
-----------------------|-------------------------|-----------------------|
-----------------------|-------------------------|-----------------------|
--L----2--2--1----5----|--2----2--2--2--2--2--2--|--L----2--2--1----5----|
--L----2--2--1----5----|--2----2--2--2--2--2--2--|--L----2--2--1----5----|
--L----2--2--1----5----|--2----2--2--2--2--2--2--|--L----2--2--1----5----|


PM PM PM PM PM PM PM PM PM PM PM
Q E E E E E E Q E E Q Q Q E E E E E E
-------------------------|-----------------------|-------------------------|
-------------------------|-----------------------|-------------------------|
-------------------------|-----------------------|-------------------------|
--4----4--4--4--4--4--4--|--L----4--4--3----7----|--4----4--4--4--4--4--4--|
--4----4--4--4--4--4--4--|--L----4--4--3----7----|--4----4--4--4--4--4--4--|
--4----4--4--4--4--4--4--|--L----4--4--3----7----|--4----4--4--4--4--4--4--|


Q. Q. Q W W
---------------------|-------------------|-------------------|
---------------------|-------------------|-------------------|
---------------------|-------------------|-------------------|
--3------7------4----|--0----------------|--3----------------|
--3------7------4----|--0----------------|--3----------------|
--3------7------4----|--0----------------|--3----------------|


W W W W
-------------------|-------------------|-------------------|-------------------|
-------------------|-------------------|-------------------|-------------------|
-------------------|-------------------|-------------------|-------------------|
--4----------------|--7----------------|--0----------------|--3----------------|
--4----------------|--7----------------|--0----------------|--3----------------|
--4----------------|--7----------------|--0----------------|--3----------------|


W H E E E E Q. Q. Q
-------------------|-----------------------|---------------------|
-------------------|-----------------------|---------------------|
-------------------|-----------------------|---------------------|
--4----------------|--L--------------------|--0------3------7----|
--4----------------|--L--------------------|--0------3------7----|
--4----------------|--L--------4--3--2--1--|--0------3------7----|


PM
E Q. Q Q E E E E Q Q E E E E H
----------------------|-------------------------|-----------------------|
----------------------|-------------------------|-----------------------|
----------------------|-------------------------|-----------------------|
--L--3------0----7----|--4--------0--4----L\----|--------------4--------|
--L--3------0----7----|--4--------0--4----L\----|--------------4--------|
--L--3------0----7----|--4--------0--4----L\----|--4--3--2--1--4--------|


PM
Q. Q. Q E Q. Q Q E E E E Q Q
---------------------|----------------------|-------------------------|
---------------------|----------------------|-------------------------|
---------------------|----------------------|-------------------------|
--0------3------7----|--L--3------0----7----|--4--------0--4----L\----|
--0------3------7----|--L--3------0----7----|--4--------0--4----L\----|
--0------3------7----|--L--3------0----7----|--4--------0--4----L\----|


E E E E H W W
-----------------------|-------------------|-------------------|
-----------------------|-------------------|-------------------|
-----------------------|-------------------|-------------------|
--------------4--------|--0----------------|--4----------------|
--------------4--------|--0----------------|--4----------------|
--4--3--2--1--4--------|--0----------------|--4----------------|


W W E E E E E E E E
-------------------|-------------------|--------------------------|-----|
-------------------|-------------------|--------------------------|-----|
-------------------|--5----------------|--------------------------|-----|
--7----------------|--5----------------|--0-----------------------|-----|
--7----------------|--3----------------|--0-----------------------|-----|
--7----------------|-------------------|--0-----------------------|-----|


PM PM PM PM PM PM PM PM PM PM PM PM
Q E E E E E E Q E E E E E E Q E E E E E E
-------------------------|-------------------------|-------------------------|
-------------------------|-------------------------|-------------------------|
-------------------------|-------------------------|-------------------------|
--0----0--0--0--0--0--0--|--L----0--0--0--0--0--0--|--4----4--4--4--4--4--1--|
--0----0--0--0--0--0--0--|--L----0--0--0--0--0--0--|--4----4--4--4--4--4--1--|
--0----0--0--0--0--0--0--|--L----0--0--0--0--0--0--|--4----4--4--4--4--4--1--|


PM PM PM PM PM PM PM PM PM PM PM
Q E E E S S Q Q E E E E E E Q E E E E E E
-------------------------|-------------------------|-------------------------|
-------------------------|-------------------------|-------------------------|
-------------------------|-------------------------|-------------------------|
--L----1--1--------------|--0----0--0--0--0--0--0--|--L----0--0--0--0--0--0--|
--L----1--1-----3-5-6----|--0----0--0--0--0--0--0--|--L----0--0--0--0--0--0--|
--L----1--1--0-----------|--0----0--0--0--0--0--0--|--L----0--0--0--0--0--0--|


PM PM PM PM PM PM PM PM PM PM PM
Q E E E E E E Q E E E S S Q Q E E E E E E
-------------------------|-------------------------|-------------------------|
-------------------------|-------------------------|-------------------------|
-------------------------|-------------------------|-------------------------|
--4----4--4--4--4--4--1--|--L----1--1--------------|--2----2--2--2--2--2--2--|
--4----4--4--4--4--4--1--|--L----1--1-----3-5-6----|--2----2--2--2--2--2--2--|
--4----4--4--4--4--4--1--|--L----1--1--0-----------|--2----2--2--2--2--2--2--|


PM PM PM PM PM PM PM PM
Q E E Q Q Q E E E E E E Q E E Q Q
-----------------------|-------------------------|-----------------------|
-----------------------|-------------------------|-----------------------|
-----------------------|-------------------------|-----------------------|
--L----2--2--1----5----|--2----2--2--2--2--2--2--|--L----2--2--1----5----|
--L----2--2--1----5----|--2----2--2--2--2--2--2--|--L----2--2--1----5----|
--L----2--2--1----5----|--2----2--2--2--2--2--2--|--L----2--2--1----5----|


PM PM PM PM PM PM PM PM PM PM PM
Q E E E E E E Q E E Q Q Q E E E E E E
-------------------------|-----------------------|-------------------------|
-------------------------|-----------------------|-------------------------|
-------------------------|-----------------------|-------------------------|
--4----4--4--4--4--4--4--|--L----4--4--3----7----|--4----4--4--4--4--4--4--|
--4----4--4--4--4--4--4--|--L----4--4--3----7----|--4----4--4--4--4--4--4--|
--4----4--4--4--4--4--4--|--L----4--4--3----7----|--4----4--4--4--4--4--4--|


Q. Q. Q W W
---------------------|-------------------|-------------------|
---------------------|-------------------|-------------------|
---------------------|-------------------|-------------------|
--3------7------4----|--0----------------|--3----------------|
--3------7------4----|--0----------------|--3----------------|
--3------7------4----|--0----------------|--3----------------|


W W W W
-------------------|-------------------|-------------------|-------------------|
-------------------|-------------------|-------------------|-------------------|
-------------------|-------------------|-------------------|-------------------|
--4----------------|--7----------------|--0----------------|--3----------------|
--4----------------|--7----------------|--0----------------|--3----------------|
--4----------------|--7----------------|--0----------------|--3----------------|


W H E E E E Q. Q. Q
-------------------|-----------------------|---------------------|
-------------------|-----------------------|---------------------|
-------------------|-----------------------|---------------------|
--4----------------|--L--------------------|--0------3------7----|
--4----------------|--L--------------------|--0------3------7----|
--4----------------|--L--------4--3--2--1--|--0------3------7----|


PM
E Q. Q Q E E E E Q Q E E E E H
----------------------|-------------------------|-----------------------|
----------------------|-------------------------|-----------------------|
----------------------|-------------------------|-----------------------|
--L--3------0----7----|--4--------0--4----L\----|--------------4--------|
--L--3------0----7----|--4--------0--4----L\----|--------------4--------|
--L--3------0----7----|--4--------0--4----L\----|--4--3--2--1--4--------|


PM
Q. Q. Q E Q. Q Q E E E E Q Q
---------------------|----------------------|-------------------------|
---------------------|----------------------|-------------------------|
---------------------|----------------------|-------------------------|
--0------3------7----|--L--3------0----7----|--4--------0--4----L\----|
--0------3------7----|--L--3------0----7----|--4--------0--4----L\----|
--0------3------7----|--L--3------0----7----|--4--------0--4----L\----|


PM PM PM PM PM PM PM PM PM PM
E E E E H S S E E E S S E E E
-----------------------|--------------------------------|
-----------------------|--------------------------------|
-----------------------|--------------------------------|
--------------4--------|--0--0--0--0--0--0--0--0--0--0--|
--------------4--------|--0--0--0--0--0--0--0--0--0--0--|
--4--3--2--1--4--------|--0--0--0--0--0--0--0--0--0--0--|


PM PM PM PM PM PM PM PM PM PM PM PM PM PM PM PM PM PM PM PM
S S E E E S S E E E S S E E E S S E E E
--------------------------------|--------------------------------|
--------------------------------|--------------------------------|
--------------------------------|--------------------------------|
--3--3--3--3--3--3--3--3--3--3--|--4--4--4--4--4--4--4--4--4--4--|
--3--3--3--3--3--3--3--3--3--3--|--4--4--4--4--4--4--4--4--4--4--|
--3--3--3--3--3--3--3--3--3--3--|--4--4--4--4--4--4--4--4--4--4--|


PM PM PM PM PM PM PM PM PM PM PM PM PM PM PM PM PM PM PM PM
S S E E E S S E E E S S E E E S S E E E
--------------------------------|--------------------------------|
--------------------------------|--------------------------------|
--------------------------------|--------------------------------|
--4--4--4--4--4--4--4--4--4--4--|--0--0--0--0--0--0--0--0--0--0--|
--4--4--4--4--4--4--4--4--4--4--|--0--0--0--0--0--0--0--0--0--0--|
--4--4--4--4--4--4--4--4--4--4--|--0--0--0--0--0--0--0--0--0--0--|


PM PM PM PM PM PM PM PM PM PM PM PM PM PM PM PM PM PM PM PM
S S E E E S S E E E S S E E E S S E E E
--------------------------------|--------------------------------|
--------------------------------|--------------------------------|
--------------------------------|--------------------------------|
--3--3--3--3--3--3--3--3--3--3--|--4--4--4--4--4--4--4--4--4--4--|
--3--3--3--3--3--3--3--3--3--3--|--4--4--4--4--4--4--4--4--4--4--|
--3--3--3--3--3--3--3--3--3--3--|--4--4--4--4--4--4--4--4--4--4--|


PM PM PM PM PM PM PM PM PM PM PM PM PM PM PM PM PM PM PM PM
S S E E E S S E E E S S E E E S S E E E
--------------------------------|--------------------------------|
--------------------------------|--------------------------------|
--------------------------------|--------------------------------|
--4--4--4--4--4--4--4--4--4--4--|--0--0--0--0--0--0--0--0--0--0--|
--4--4--4--4--4--4--4--4--4--4--|--0--0--0--0--0--0--0--0--0--0--|
--4--4--4--4--4--4--4--4--4--4--|--0--0--0--0--0--0--0--0--0--0--|


PM PM PM PM PM PM PM PM PM PM PM PM PM PM PM PM PM PM PM PM
S S E E E S S E E E S S E E E S S E E E
--------------------------------|--------------------------------|
--------------------------------|--------------------------------|
--------------------------------|--------------------------------|
--3--3--3--3--3--3--3--3--3--3--|--4--4--4--4--4--4--4--4--4--4--|
--3--3--3--3--3--3--3--3--3--3--|--4--4--4--4--4--4--4--4--4--4--|
--3--3--3--3--3--3--3--3--3--3--|--4--4--4--4--4--4--4--4--4--4--|


PM PM PM PM PM PM PM PM PM PM PM PM PM PM PM PM PM PM PM PM
S S E E E S S E E E S S E E E S S E E E
--------------------------------|--------------------------------|
--------------------------------|--------------------------------|
--------------------------------|--------------------------------|
--4--4--4--4--4--4--4--4--4--4--|--0--0--0--0--0--0--0--0--0--0--|
--4--4--4--4--4--4--4--4--4--4--|--0--0--0--0--0--0--0--0--0--0--|
--4--4--4--4--4--4--4--4--4--4--|--0--0--0--0--0--0--0--0--0--0--|


PM PM PM PM PM PM PM PM PM PM PM PM PM PM PM PM PM PM PM PM
S S E E E S S E E E S S E E E S S E E E
--------------------------------|--------------------------------|
--------------------------------|--------------------------------|
--------------------------------|--------------------------------|
--3--3--3--3--3--3--3--3--3--3--|--4--4--4--4--4--4--4--4--4--4--|
--3--3--3--3--3--3--3--3--3--3--|--4--4--4--4--4--4--4--4--4--4--|
--3--3--3--3--3--3--3--3--3--3--|--4--4--4--4--4--4--4--4--4--4--|


PM PM PM PM PM PM PM PM PM PM PM PM PM PM PM PM PM PM PM PM
S S E E E S S E E E S S E E E S S E E E
--------------------------------|--------------------------------|
--------------------------------|--------------------------------|
--------------------------------|--------------------------------|
--4--4--4--4--4--4--4--4--4--4--|--0--0--0--0--0--0--0--0--0--0--|
--4--4--4--4--4--4--4--4--4--4--|--0--0--0--0--0--0--0--0--0--0--|
--4--4--4--4--4--4--4--4--4--4--|--0--0--0--0--0--0--0--0--0--0--|


PM PM PM PM PM PM PM PM PM PM PM PM PM PM PM PM PM PM PM PM
S S E E E S S E E E S S E E E S S E E E
--------------------------------|--------------------------------|
--------------------------------|--------------------------------|
--------------------------------|--------------------------------|
--3--3--3--3--3--3--3--3--3--3--|--4--4--4--4--4--4--4--4--4--4--|
--3--3--3--3--3--3--3--3--3--3--|--4--4--4--4--4--4--4--4--4--4--|
--3--3--3--3--3--3--3--3--3--3--|--4--4--4--4--4--4--4--4--4--4--|


PM PM PM PM PM PM PM PM PM PM PM PM PM PM PM PM PM PM PM PM
S S E E E S S E E E S S E E E S S E E E
--------------------------------|--------------------------------|
--------------------------------|--------------------------------|
--------------------------------|--------------------------------|
--4--4--4--4--4--4--4--4--4--4--|--0--0--0--0--0--0--0--0--0--0--|
--4--4--4--4--4--4--4--4--4--4--|--0--0--0--0--0--0--0--0--0--0--|
--4--4--4--4--4--4--4--4--4--4--|--0--0--0--0--0--0--0--0--0--0--|


PM PM PM PM PM PM PM PM PM PM PM PM PM PM PM PM PM PM PM PM
S S E E E S S E E E S S E E E S S E E E
--------------------------------|--------------------------------|
--------------------------------|--------------------------------|
--------------------------------|--------------------------------|
--3--3--3--3--3--3--3--3--3--3--|--4--4--4--4--4--4--4--4--4--4--|
--3--3--3--3--3--3--3--3--3--3--|--4--4--4--4--4--4--4--4--4--4--|
--3--3--3--3--3--3--3--3--3--3--|--4--4--4--4--4--4--4--4--4--4--|


PM PM PM PM PM PM PM PM
E E E E E E E E W H H
--------------------------|-------------------|--------------------|
--------------------------|-------------------|--------------------|
--------------------------|-------------------|--------------------|
--4--4--4--4--4--4--4--4--|--0----------------|--3--------7--------|
--4--4--4--4--4--4--4--4--|--0----------------|--3--------7--------|
--4--4--4--4--4--4--4--4--|--0----------------|--3--------7--------|


W W W
-------------------|-------------------|-------------------|
-------------------|-------------------|-------------------|
-------------------|-------------------|-------------------|
--4----------------|--L----------------|--0----------------|
--4----------------|--L----------------|--0----------------|
--4----------------|--L----------------|--0----------------|


H H W W
--------------------|-------------------|-------------------|
--------------------|-------------------|-------------------|
--------------------|-------------------|-------------------|
--3--------7--------|--4----------------|--L----------------|
--3--------7--------|--4----------------|--L----------------|
--3--------7--------|--4----------------|--L----------------|


W H H W
-------------------|--------------------|-------------------|
-------------------|--------------------|-------------------|
-------------------|--------------------|-------------------|
--0----------------|--3--------7--------|--4----------------|
--0----------------|--3--------7--------|--4----------------|
--0----------------|--3--------7--------|--4----------------|


W E E E E E E E E E E E E E E E E
-------------------|--------------------------|--------------------------|
-------------------|--------------------------|--------------------------|
-------------------|--------------------------|--------------------------|
--L----------------|--0--0--0-----------3--3--|--3-----------------------|
--L----------------|--0--0--0-----------3--3--|--3-----------------------|
--L----------------|--0--0--0-----------3--3--|--3-----------------------|


Q. Q. Q E Q. E E E E Q. Q. Q
---------------------|------------------------|---------------------|
---------------------|------------------------|---------------------|
---------------------|------------------------|---------------------|
--4------4------4----|--L--4------4--4--4--4--|--0------3------7----|
--4------4------4----|--L--4------4--4--4--4--|--0------3------7----|
--4------4------4----|--L--4------4--4--4--4--|--0------3------7----|


PM PM PM PM PM PM PM PM PM PM PM PM PM PM
E Q. Q Q Q E E E E E E E E E E E E E E
----------------------|-------------------------|--------------------------|
----------------------|-------------------------|--------------------------|
----------------------|-------------------------|--------------------------|
--L--3------0----7----|--4----4--4--4--4--4--4--|--4--4--4--4--4--4--4--4--|
--L--3------0----7----|--4----4--4--4--4--4--4--|--4--4--4--4--4--4--4--4--|
--L--3------0----7----|--4----4--4--4--4--4--4--|--4--4--4--4--4--4--4--4--|


PM PM PM PM PM PM
Q. Q. Q E Q. Q Q Q E E E E E E
---------------------|----------------------|-------------------------|
---------------------|----------------------|-------------------------|
---------------------|----------------------|-------------------------|
--0------3------7----|--L--3------0----7----|--4----4--4--4--4--4--4--|
--0------3------7----|--L--3------0----7----|--4----4--4--4--4--4--4--|
--0------3------7----|--L--3------0----7----|--4----4--4--4--4--4--4--|


PM PM PM PM PM PM PM PM
E E E E E E E E Q. Q. Q E Q. Q Q
--------------------------|---------------------|----------------------|
--------------------------|---------------------|----------------------|
--------------------------|---------------------|----------------------|
--4--4--4--4--4--4--4--4--|--0------3------7----|--L--3------0----7----|
--4--4--4--4--4--4--4--4--|--0------3------7----|--L--3------0----7----|
--4--4--4--4--4--4--4--4--|--0------3------7----|--L--3------0----7----|


PM PM PM PM PM PM PM PM PM PM PM PM PM PM
Q E E E E E E E E E E E E E E Q. Q. Q
-------------------------|--------------------------|---------------------|
-------------------------|--------------------------|---------------------|
-------------------------|--------------------------|---------------------|
--4----4--4--4--4--4--4--|--4--4--4--4--4--4--4--4--|--0------3------7----|
--4----4--4--4--4--4--4--|--4--4--4--4--4--4--4--4--|--0------3------7----|
--4----4--4--4--4--4--4--|--4--4--4--4--4--4--4--4--|--0------3------7----|


E Q. Q Q W W
----------------------|-------------------|-------------------|
----------------------|-------------------|-------------------|
----------------------|-------------------|-------------------|
--L--3------0----7----|--4----------------|--L----------------|
--L--3------0----7----|--4----------------|--L----------------|
--L--3------0----7----|--4----------------|--L----------------|


PM PM PM PM PM PM PM PM PM PM
Q E E E E E E Q E E Q Q Q E E E E E E
-------------------------|-----------------------|-------------------------|
-------------------------|-----------------------|-------------------------|
-------------------------|-----------------------|-------------------------|
--2----2--2--2--2--2--2--|--L----2--2--1----5----|--2----2--2--2--2--2--2--|
--2----2--2--2--2--2--2--|--L----2--2--1----5----|--2----2--2--2--2--2--2--|
--2----2--2--2--2--2--2--|--L----2--2--1----5----|--2----2--2--2--2--2--2--|


PM PM PM PM PM PM PM PM
Q E E Q Q Q E E E E E E Q E E Q Q
-----------------------|-------------------------|-----------------------|
-----------------------|-------------------------|-----------------------|
-----------------------|-------------------------|-----------------------|
--L----2--2--1----5----|--4----4--4--4--4--4--4--|--L----4--4--3----7----|
--L----2--2--1----5----|--4----4--4--4--4--4--4--|--L----4--4--3----7----|
--L----2--2--1----5----|--4----4--4--4--4--4--4--|--L----4--4--3----7----|


PM PM PM PM PM
Q E E E E E E Q. Q. Q W
-------------------------|---------------------|-------------------|
-------------------------|---------------------|-------------------|
-------------------------|---------------------|-------------------|
--4----4--4--4--4--4--4--|--3------7------4----|--0----------------|
--4----4--4--4--4--4--4--|--3------7------4----|--0----------------|
--4----4--4--4--4--4--4--|--3------7------4----|--0----------------|


W W W W
-------------------|-------------------|-------------------|-------------------|
-------------------|-------------------|-------------------|-------------------|
-------------------|-------------------|-------------------|-------------------|
--3----------------|--4----------------|--7----------------|--0----------------|
--3----------------|--4----------------|--7----------------|--0----------------|
--3----------------|--4----------------|--7----------------|--0----------------|


W W H E E E E
-------------------|-------------------|-----------------------|
-------------------|-------------------|-----------------------|
-------------------|-------------------|-----------------------|
--3----------------|--4----------------|--L--------------------|
--3----------------|--4----------------|--L--------------------|
--3----------------|--4----------------|--L--------4--3--2--1--|


PM
Q. Q. Q E Q. Q Q E E E E Q Q
---------------------|----------------------|-------------------------|
---------------------|----------------------|-------------------------|
---------------------|----------------------|-------------------------|
--0------3------7----|--L--3------0----7----|--4--------0--4----L\----|
--0------3------7----|--L--3------0----7----|--4--------0--4----L\----|
--0------3------7----|--L--3------0----7----|--4--------0--4----L\----|


E E E E H Q. Q. Q E Q. Q Q
-----------------------|---------------------|----------------------|
-----------------------|---------------------|----------------------|
-----------------------|---------------------|----------------------|
--------------4--------|--0------3------7----|--L--3------0----7----|
--------------4--------|--0------3------7----|--L--3------0----7----|
--4--3--2--1--4--------|--0------3------7----|--L--3------0----7----|


PM PM PM PM PM PM PM
E E E E Q Q S E S E S S S E S E S S
-------------------------|------------------------------------|
-------------------------|------------------------------------|
-------------------------|------------------------------------|
--4--------0--4----L\----|--4-----4-----4----4-----4-----4----|
--4--------0--4----L\----|--4-----4-----4----4-----4-----4----|
--4--------0--4----L\----|--4-----4-----4----4-----4-----4----|


Q. Q. Q E Q. Q Q W
---------------------|----------------------|-------------------|
---------------------|----------------------|-------------------|
---------------------|----------------------|-------------------|
--0------3------7----|--L--3------0----7----|--4----------------|
--0------3------7----|--L--3------0----7----|--4----------------|
--0------3------7----|--L--3------0----7----|--4----------------|


W Q. Q. Q E Q. Q Q
-------------------|---------------------|----------------------|
-------------------|---------------------|----------------------|
-------------------|---------------------|----------------------|
--L----------------|--0------3------7----|--L--3------0----7----|
--L----------------|--0------3------7----|--L--3------0----7----|
--L----------------|--0------3------7----|--L--3------0----7----|


W W Q. Q. Q
-------------------|-------------------|---------------------|
-------------------|-------------------|---------------------|
-------------------|-------------------|---------------------|
--4----------------|--L----------------|--0------3------7----|
--4----------------|--L----------------|--0------3------7----|
--4----------------|--L----------------|--0------3------7----|


E Q. Q Q W W
----------------------|-------------------|-------------------|
----------------------|-------------------|-------------------|
----------------------|-------------------|-------------------|
--L--3------0----7----|--4----------------|--L----------------|
--L--3------0----7----|--4----------------|--L----------------|
--L--3------0----7----|--4----------------|--L----------------|


Q. Q. Q E Q. Q Q W
---------------------|----------------------|-------------------|
---------------------|----------------------|-------------------|
---------------------|----------------------|-------------------|
--0------3------7----|--L--3------0----7----|--4----------------|
--0------3------7----|--L--3------0----7----|--4----------------|
--0------3------7----|--L--3------0----7----|--4----------------|


W W W
-------------------|-------------------|-------------------||
-------------------|-------------------|-------------------||
-------------------|-------------------|-------------------||
--L----------------|--L----------------|--L----------------||
--L----------------|--L----------------|--L----------------||
--L----------------|--L----------------|--L----------------||


Guitar 2

Starts at (00:13)

PM PM PM PM PM
E S S E E S S E E S S E E S S E E S S Q
-----------------------------|---------------------------|
-----------------------------|---------------------------|
-----------------------------|---------------------------|
-----------------------------|---------------------------|
-----3-5-6-----3-5-6-----3-5-|--6-----3-5-6-----3-5-6----|
--0---------0---------0------|-----0---------0-----------|


PM PM PM PM PM
E S S E E S S E E S S E E S S E E S S Q
-----------------------------|---------------------------|
-----------------------------|---------------------------|
-----------------------------|---------------------------|
-----------------------------|---------------------------|
-----3-5-6-----3-5-6-----3-5-|--6-----3-5-6-----3-5-6----|
--0---------0---------0------|-----0---------0-----------|


PM PM PM PM PM
E S S E E S S E E S S E E S S E E S S Q
-----------------------------|---------------------------|
-----------------------------|---------------------------|
-----------------------------|---------------------------|
-----------------------------|---------------------------|
-----3-5-6-----3-5-6-----3-5-|--6-----3-5-6-----3-5-6----|
--0---------0---------0------|-----0---------0-----------|


PM PM PM PM PM
E S S E E S S E E S S E E S S E E S S Q
-----------------------------|---------------------------|
-----------------------------|---------------------------|
-----------------------------|---------------------------|
-----------------------------|---------------------------|
-----3-5-6-----3-5-6-----3-5-|--6-----3-5-6-----3-5-6----|
--0---------0---------0------|-----0---------0-----------|


PM PM PM PM PM
E S S E E S S E E S S E E S S E E S S Q
-----------------------------|---------------------------|
-----------------------------|---------------------------|
-----------------------------|---------------------------|
-----------------------------|---------------------------|
-----3-5-6-----3-5-6-----3-5-|--6-----3-5-6-----3-5-6----|
--0---------0---------0------|-----0---------0-----------|


PM PM PM PM PM
E S S E E S S E E S S E E S S E E S S Q
-----------------------------|---------------------------|
-----------------------------|---------------------------|
-----------------------------|---------------------------|
-----------------------------|---------------------------|
-----3-5-6-----3-5-6-----3-5-|--6-----3-5-6-----3-5-6----|
--0---------0---------0------|-----0---------0-----------|


PM PM PM PM PM
E S S E E S S E E S S E E S S E E S S Q
-----------------------------|---------------------------|
-----------------------------|---------------------------|
-----------------------------|---------------------------|
-----------------------------|---------------------------|
-----3-5-6-----3-5-6-----3-5-|--6-----3-5-6-----3-5-6----|
--0---------0---------0------|-----0---------0-----------|


PM PM PM PM PM
E S S E E S S E E S S E E S S E E S S Q
-----------------------------|---------------------------|
-----------------------------|---------------------------|
-----------------------------|---------------------------|
-----------------------------|---------------------------|
-----3-5-6-----3-5-6-----3-5-|--6-----3-5-6-----3-5-6----|
--0---------0---------0------|-----0---------0-----------|


PM PM PM PM PM
E S S E E S S E E S S E E S S E E S S Q
-----------------------------|---------------------------|
-----------------------------|---------------------------|
-----------------------------|---------------------------|
-----------------------------|---------------------------|
-----3-5-6-----3-5-6-----3-5-|--6-----3-5-6-----3-5-6----|
--0---------0---------0------|-----0---------0-----------|


PM PM PM PM PM
E S S E E S S E E S S E E S S E E S S Q
-----------------------------|---------------------------|
-----------------------------|---------------------------|
-----------------------------|---------------------------|
-----------------------------|---------------------------|
-----3-5-6-----3-5-6-----3-5-|--6-----3-5-6-----3-5-6----|
--0---------0---------0------|-----0---------0-----------|


PM PM PM PM PM
E S S E E S S E E S S E E S S E E S S Q
-----------------------------|---------------------------|
-----------------------------|---------------------------|
-----------------------------|---------------------------|
-----------------------------|---------------------------|
-----3-5-6-----3-5-6-----3-5-|--6-----3-5-6-----3-5-6----|
--0---------0---------0------|-----0---------0-----------|


PM PM PM PM PM
E S S E E S S E E S S E E S S E E S S Q
-----------------------------|---------------------------|
-----------------------------|---------------------------|
-----------------------------|---------------------------|
-----------------------------|---------------------------|
-----3-5-6-----3-5-6-----3-5-|--6-----3-5-6-----3-5-6----|
--0---------0---------0------|-----0---------0-----------|


PM PM PM PM PM PM PM PM PM PM PM PM
Q E E E E E E Q E E E E E E Q E E E E E E
-------------------------|-------------------------|-------------------------|
-------------------------|-------------------------|-------------------------|
-------------------------|-------------------------|-------------------------|
--0----0--0--0--0--0--0--|--L----0--0--0--0--0--0--|--4----4--4--4--4--4--1--|
--0----0--0--0--0--0--0--|--L----0--0--0--0--0--0--|--4----4--4--4--4--4--1--|
--0----0--0--0--0--0--0--|--L----0--0--0--0--0--0--|--4----4--4--4--4--4--1--|


PM PM PM PM PM PM PM PM PM PM PM
Q E E E S S Q Q E E E E E E Q E E E E E E
-------------------------|-------------------------|-------------------------|
-------------------------|-------------------------|-------------------------|
-------------------------|-------------------------|-------------------------|
--L----1--1--------------|--0----0--0--0--0--0--0--|--L----0--0--0--0--0--0--|
--L----1--1-----3-5-6----|--0----0--0--0--0--0--0--|--L----0--0--0--0--0--0--|
--L----1--1--0-----------|--0----0--0--0--0--0--0--|--L----0--0--0--0--0--0--|


PM PM PM PM PM PM PM PM PM PM PM
Q E E E E E E Q E E E S S Q Q E E E E E E
-------------------------|-------------------------|-------------------------|
-------------------------|-------------------------|-------------------------|
-------------------------|-------------------------|-------------------------|
--4----4--4--4--4--4--1--|--L----1--1--------------|--2----2--2--2--2--2--2--|
--4----4--4--4--4--4--1--|--L----1--1-----3-5-6----|--2----2--2--2--2--2--2--|
--4----4--4--4--4--4--1--|--L----1--1--0-----------|--2----2--2--2--2--2--2--|


PM PM PM PM PM PM PM PM
Q E E Q Q Q E E E E E E Q E E Q Q
-----------------------|-------------------------|-----------------------|
-----------------------|-------------------------|-----------------------|
-----------------------|-------------------------|-----------------------|
--L----2--2--1----5----|--2----2--2--2--2--2--2--|--L----2--2--1----5----|
--L----2--2--1----5----|--2----2--2--2--2--2--2--|--L----2--2--1----5----|
--L----2--2--1----5----|--2----2--2--2--2--2--2--|--L----2--2--1----5----|


PM PM PM PM PM PM PM PM PM PM PM
Q E E E E E E Q E E Q Q Q E E E E E E
-------------------------|-----------------------|-------------------------|
-------------------------|-----------------------|-------------------------|
-------------------------|-----------------------|-------------------------|
--4----4--4--4--4--4--4--|--L----4--4--3----7----|--4----4--4--4--4--4--4--|
--4----4--4--4--4--4--4--|--L----4--4--3----7----|--4----4--4--4--4--4--4--|
--4----4--4--4--4--4--4--|--L----4--4--3----7----|--4----4--4--4--4--4--4--|


Q. Q. Q W H. Q
---------------------|-------------------|----------------------|
---------------------|-------------------|----------------------|
---------------------|--7----------------|--10------------14----|
--3------7------4----|--x----------------|---x-------------x----|
--3------7------4----|--5----------------|---8------------12----|
--3------7------4----|-------------------|----------------------|


W W W
--------------------|--------------------|-------------------|
--------------------|--------------------|-------------------|
--11----------------|--14----------------|--7----------------|
---x----------------|---x----------------|--x----------------|
---9----------------|--12----------------|--5----------------|
--------------------|--------------------|-------------------|


H. Q W W
----------------------|--------------------|-------------------|
----------------------|--------------------|-------------------|
--10------------14----|--11----------------|--L----------------|
---x-------------x----|---x----------------|-------------------|
---8------------12----|---9----------------|--L----------------|
----------------------|--------------------|-------------------|


Q. Q. Q E Q. Q Q W
------------------------|-------------------------|---------------------|
--10------10------10----|--L--10------10----10----|--12b----------------|
------------------------|-------------------------|---------------------|
------------------------|-------------------------|---------------------|
------------------------|-------------------------|---------------------|
------------------------|-------------------------|---------------------|


W Q. Q. Q E Q. Q Q
--------------------|------------------------|-------------------------|
--------------------|--10------10------10----|--L--10------10----10----|
--11----------------|------------------------|-------------------------|
--------------------|------------------------|-------------------------|
--------------------|------------------------|-------------------------|
--------------------|------------------------|-------------------------|


W W E S S Q S S Q E
---------------------|--------------------|--------------------------------|
--12b----------------|--------------------|-----10-12-14----10-12-14----L--|
---------------------|--11----------------|--------------------------------|
---------------------|--------------------|--------------------------------|
---------------------|--------------------|--------------------------------|
---------------------|--------------------|--------------------------------|


E S S Q S S Q E E S S Q S S Q S S
--------------------------------|-----------------------------------|
-----10-12-14----10-12-14----L--|-----13-15-17----13-15-17----16-18-|
--------------------------------|-----------------------------------|
--------------------------------|-----------------------------------|
--------------------------------|-----------------------------------|
--------------------------------|-----------------------------------|


PM PM PM
S S S S S S S S H E S S E E S S E E S S
-----------------------16-20--------|-----------------------------|
--20-16-------16-18-20--------------|-----------------------------|
--------17--------------------------|-----------------------------|
-----------17-----------------------|-----------------------------|
------------------------------------|-----3-5-6-----3-5-6-----3-5-|
------------------------------------|--0---------0---------0------|


PM PM PM PM PM PM PM PM PM PM
E E S S E E S S Q Q E E E E E E Q E E E E E E
---------------------------|-------------------------|-------------------------|
---------------------------|-------------------------|-------------------------|
---------------------------|-------------------------|-------------------------|
---------------------------|--0----0--0--0--0--0--0--|--L----0--0--0--0--0--0--|
--6-----3-5-6-----3-5-6----|--0----0--0--0--0--0--0--|--L----0--0--0--0--0--0--|
-----0---------0-----------|--0----0--0--0--0--0--0--|--L----0--0--0--0--0--0--|


PM PM PM PM PM PM PM PM PM PM PM
Q E E E E E E Q E E E S S Q Q E E E E E E
-------------------------|-------------------------|-------------------------|
-------------------------|-------------------------|-------------------------|
-------------------------|-------------------------|-------------------------|
--4----4--4--4--4--4--1--|--L----1--1--------------|--0----0--0--0--0--0--0--|
--4----4--4--4--4--4--1--|--L----1--1-----3-5-6----|--0----0--0--0--0--0--0--|
--4----4--4--4--4--4--1--|--L----1--1--0-----------|--0----0--0--0--0--0--0--|


PM PM PM PM PM PM PM PM PM PM PM
Q E E E E E E Q E E E E E E Q E E E S S Q
-------------------------|-------------------------|-------------------------|
-------------------------|-------------------------|-------------------------|
-------------------------|-------------------------|-------------------------|
--L----0--0--0--0--0--0--|--4----4--4--4--4--4--1--|--L----1--1--------------|
--L----0--0--0--0--0--0--|--4----4--4--4--4--4--1--|--L----1--1-----3-5-6----|
--L----0--0--0--0--0--0--|--4----4--4--4--4--4--1--|--L----1--1--0-----------|


PM PM PM PM PM PM PM PM PM PM
Q E E E E E E Q E E Q Q Q E E E E E E
-------------------------|-----------------------|-------------------------|
-------------------------|-----------------------|-------------------------|
-------------------------|-----------------------|-------------------------|
--2----2--2--2--2--2--2--|--L----2--2--1----5----|--2----2--2--2--2--2--2--|
--2----2--2--2--2--2--2--|--L----2--2--1----5----|--2----2--2--2--2--2--2--|
--2----2--2--2--2--2--2--|--L----2--2--1----5----|--2----2--2--2--2--2--2--|


PM PM PM PM PM PM PM PM
Q E E Q Q Q E E E E E E Q E E Q Q
-----------------------|-------------------------|-----------------------|
-----------------------|-------------------------|-----------------------|
-----------------------|-------------------------|-----------------------|
--L----2--2--1----5----|--4----4--4--4--4--4--4--|--L----4--4--3----7----|
--L----2--2--1----5----|--4----4--4--4--4--4--4--|--L----4--4--3----7----|
--L----2--2--1----5----|--4----4--4--4--4--4--4--|--L----4--4--3----7----|


PM PM PM PM PM
Q E E E E E E Q. Q. Q W
-------------------------|---------------------|-------------------|
-------------------------|---------------------|-------------------|
-------------------------|---------------------|--7----------------|
--4----4--4--4--4--4--4--|--3------7------4----|--x----------------|
--4----4--4--4--4--4--4--|--3------7------4----|--5----------------|
--4----4--4--4--4--4--4--|--3------7------4----|-------------------|


H. Q W W
----------------------|--------------------|--------------------|
----------------------|--------------------|--------------------|
--10------------14----|--11----------------|--14----------------|
---x-------------x----|---x----------------|---x----------------|
---8------------12----|---9----------------|--12----------------|
----------------------|--------------------|--------------------|


W H. Q W
-------------------|----------------------|--------------------|
-------------------|----------------------|--------------------|
--7----------------|--10------------14----|--11----------------|
--x----------------|---x-------------x----|---x----------------|
--5----------------|---8------------12----|---9----------------|
-------------------|----------------------|--------------------|


W Q. Q. Q E Q. Q Q
-------------------|------------------------|-------------------------|
-------------------|--10------10------10----|--L--10------10----10----|
--L----------------|------------------------|-------------------------|
-------------------|------------------------|-------------------------|
--L----------------|------------------------|-------------------------|
-------------------|------------------------|-------------------------|


W W Q. Q. Q
---------------------|--------------------|------------------------|
--12b----------------|--------------------|--10------10------10----|
---------------------|--11----------------|------------------------|
---------------------|--------------------|------------------------|
---------------------|--------------------|------------------------|
---------------------|--------------------|------------------------|


E Q. Q Q W W
-------------------------|---------------------|--------------------|
--L--10------10----10----|--12b----------------|--------------------|
-------------------------|---------------------|--11----------------|
-------------------------|---------------------|--------------------|
-------------------------|---------------------|--------------------|
-------------------------|---------------------|--------------------|


Q H Q Q H Q Q H Q
---------------------|---------------------|---------------------|
---------------------|---------------------|---------------------|
---------------------|--5-------------5----|--6-------------6----|
--7----4--------7----|-------7-------------|-------7-------------|
---------------------|---------------------|---------------------|
---------------------|---------------------|---------------------|


Q Q Q Q Q H Q Q H Q
----------------------|------------------------|------------------------|
--7---------9---------|------------------------|--13--------------13----|
-------6---------6----|--14----11--------14----|--------14--------------|
----------------------|------------------------|------------------------|
----------------------|------------------------|------------------------|
----------------------|------------------------|------------------------|


W Q Q Q Q W
--------------------|--/14----------16----------|--16b----------------|
--14----------------|---------14----------14----|---------------------|
--------------------|---------------------------|---------------------|
--------------------|---------------------------|---------------------|
--------------------|---------------------------|---------------------|
--------------------|---------------------------|---------------------|


PM PM PM PM PM PM PM PM PM PM
S S E E E S S E E E
-------------------|--------------------------------|
-------------------|--------------------------------|
-------------------|--------------------------------|
-------------------|--4--4--4--4--4--4--4--4--4--4--|
-------------------|--4--4--4--4--4--4--4--4--4--4--|
-------------------|--4--4--4--4--4--4--4--4--4--4--|


PM PM PM PM PM PM PM PM PM PM PM PM PM PM PM PM PM PM PM PM
S S E E E S S E E E S S E E E S S E E E
--------------------------------|--------------------------------|
--------------------------------|--------------------------------|
--------------------------------|--------------------------------|
--4--4--4--4--4--4--4--4--4--4--|--0--0--0--0--0--0--0--0--0--0--|
--4--4--4--4--4--4--4--4--4--4--|--0--0--0--0--0--0--0--0--0--0--|
--4--4--4--4--4--4--4--4--4--4--|--0--0--0--0--0--0--0--0--0--0--|


PM PM PM PM PM PM PM PM PM PM PM PM PM PM PM PM PM PM PM PM
S S E E E S S E E E S S E E E S S E E E
--------------------------------|--------------------------------|
--------------------------------|--------------------------------|
--------------------------------|--------------------------------|
--3--3--3--3--3--3--3--3--3--3--|--4--4--4--4--4--4--4--4--4--4--|
--3--3--3--3--3--3--3--3--3--3--|--4--4--4--4--4--4--4--4--4--4--|
--3--3--3--3--3--3--3--3--3--3--|--4--4--4--4--4--4--4--4--4--4--|


PM PM PM PM PM PM PM PM PM PM PM PM PM PM PM PM PM PM PM PM
S S E E E S S E E E S S E E E S S E E E
--------------------------------|--------------------------------|
--------------------------------|--------------------------------|
--------------------------------|--------------------------------|
--4--4--4--4--4--4--4--4--4--4--|--0--0--0--0--0--0--0--0--0--0--|
--4--4--4--4--4--4--4--4--4--4--|--0--0--0--0--0--0--0--0--0--0--|
--4--4--4--4--4--4--4--4--4--4--|--0--0--0--0--0--0--0--0--0--0--|


PM PM PM PM PM PM PM PM PM PM PM PM PM PM PM PM PM PM PM PM
S S E E E S S E E E S S E E E S S E E E
--------------------------------|--------------------------------|
--------------------------------|--------------------------------|
--------------------------------|--------------------------------|
--3--3--3--3--3--3--3--3--3--3--|--4--4--4--4--4--4--4--4--4--4--|
--3--3--3--3--3--3--3--3--3--3--|--4--4--4--4--4--4--4--4--4--4--|
--3--3--3--3--3--3--3--3--3--3--|--4--4--4--4--4--4--4--4--4--4--|


PM PM PM PM PM PM PM PM PM PM PM PM PM PM PM PM PM PM PM PM
S S E E E S S E E E S S E E E S S E E E
--------------------------------|--------------------------------|
--------------------------------|--------------------------------|
--------------------------------|--------------------------------|
--4--4--4--4--4--4--4--4--4--4--|--0--0--0--0--0--0--0--0--0--0--|
--4--4--4--4--4--4--4--4--4--4--|--0--0--0--0--0--0--0--0--0--0--|
--4--4--4--4--4--4--4--4--4--4--|--0--0--0--0--0--0--0--0--0--0--|


PM PM PM PM PM PM PM PM PM PM PM PM PM PM PM PM PM PM PM PM
S S E E E S S E E E S S E E E S S E E E
--------------------------------|--------------------------------|
--------------------------------|--------------------------------|
--------------------------------|--------------------------------|
--3--3--3--3--3--3--3--3--3--3--|--4--4--4--4--4--4--4--4--4--4--|
--3--3--3--3--3--3--3--3--3--3--|--4--4--4--4--4--4--4--4--4--4--|
--3--3--3--3--3--3--3--3--3--3--|--4--4--4--4--4--4--4--4--4--4--|


PM PM PM PM PM PM PM PM
E E E E E E E E W H H
--------------------------|--------------------|----------------------|
--------------------------|--------------------|----------------------|
--------------------------|--11----------------|--10--------14--------|
--4--4--4--4--4--4--4--4--|---x----------------|---x---------x--------|
--4--4--4--4--4--4--4--4--|---9----------------|---8--------12--------|
--4--4--4--4--4--4--4--4--|--------------------|----------------------|


W H E E E E W
--------------------|-------------------------|--------------------|
--------------------|-------------------------|--------------------|
--11----------------|--L--------11--10--9--8--|--11----------------|
---x----------------|------------x---x--x--x--|---x----------------|
---9----------------|--L---------9---8--7--6--|---9----------------|
--------------------|-------------------------|--------------------|


H H W H E E E E
----------------------|--------------------|-------------------------|
----------------------|--------------------|-------------------------|
--10--------14--------|--11----------------|--L--------11--10--9--8--|
---x---------x--------|---x----------------|------------x---x--x--x--|
---8--------12--------|---9----------------|--L---------9---8--7--6--|
----------------------|--------------------|-------------------------|


W H H W
--------------------|----------------------|--------------------|
--------------------|----------------------|--------------------|
--11----------------|--10--------14--------|--11----------------|
---x----------------|---x---------x--------|---x----------------|
---9----------------|---8--------12--------|---9----------------|
--------------------|----------------------|--------------------|


H E E E E E E E E E E E E
-------------------------|-------------------------------|
-------------------------|-------------------------------|
--L--------11--10--9--8--|--11--11--11-----------10--10--|
------------x---x--x--x--|---x---x---x------------x---x--|
--L---------9---8--7--6--|---9---9---9------------8---8--|
-------------------------|-------------------------------|


E E E E E E E E S S S S S S S S S S S S S S S S
---------------------------|----------5-8-9-5-9-5-----8-5-----|
---------------------------|--------7-------------7-------7---|
--10-----------------------|------6-----------------6-------6-|
---x-----------------------|----7-----------------------------|
---8-----------------------|--9-------------------------------|
---------------------------|----------------------------------|


S S S S S S S S S S S S S S S S S S S S S S S S S S S S S S S S
----------5-8-9-5-9-5-----8-5-----|-------------8-11-12-8-12-8------11-8------|
--------7-------------7-------7---|----------10----------------10--------10---|
------6-----------------6-------6-|--------9----------------------9---------9-|
----7-----------------------------|-----10------------------------------------|
--9-------------------------------|--12---------------------------------------|
----------------------------------|-------------------------------------------|


S S S S S S S S S S S S S S S S
-------------8-11-12-8-12-8------15----------|
----------10----------------10------15-------|
--------9----------------------9-------15----|
-----10-----------------------------------15-|
--12-----------------------------------------|
---------------------------------------------|


|--3--| |--3--| |--3--| |--3--| |--3--| |--3--| |--3--| |--3--|
S S S S S S S S S S S S S S S S S S S S S S S S
--17----------------------17----------------------17----------------------|
-----17----------------17----17----------------17----17----------------17-|
--------17----------17----------17----------17----------17----------17----|
-----------19-17-19----------------19-17-19----------------19-17-19-------|
---------------------------

Like us on Facebook.....
-> Loading Time :0.0348 sec