Pathetic Liar Tabs & Lyrics by Grip Inc.

Pathetic Liar

guitar tabs lyrics

Grip Inc.

Album : Nemesis thrash metal PlayStop



I'm new here and here is my first transcription...
Any comments, questions and suggests write to Sparhawk : mpb@netlab.sk

GRIP Inc. - Pathetic Liar (Nemesis)
transcribed by Sparhawk


dots - Palm Muting

RIFF A

|-------------------------------|
|-------------------------------|
|-------------------------------|
|-------------------------------|
|---------------5---5-----5---5-|
|-2-2-2-2-3-2-2-3---3---2-3---3-|
. . . . . . . .

Does a trusting face

|-------------------------------|
|-------------------------------|
|-------------------------------|
|-------------------------------|
|---------------5---5-----5-----|
|-2-2-2-2-3-2-2-3---3---2-3-0-0-|
. . . . . . . . . .

Reflects its heart

|-------------------------------|
|-------------------------------|
|-------------------------------|
|-------------------------------|
|-5\7-----------5---5-----5---5-|
|-5\7-2-2-3-2-2-3---3---2-3---3-|
. . . . . . . .

Shaking hands or...

|-------------------------------|
|-------------------------------|
|----------------------6\7b-777/|
|-------------------------------|
|---------------5---5-----------|
|-2-2-2-2-3-2-2-3---3-----------|
. . . . . . . .

...breaking wrists

Life's all a lie
Stealing glory from the hearts of others
Stood facing mirrors
Reflections thrashing in disbelief

Chorus:

|---------------------------------|
|---------------------------------|
|---------------------------------|
|-5\7-7-7-7-7-7-7-7\8-8-8-8-8-8-8-|
|-3\5-5-5-5-5-5-5-5\6-6-6-6-6-6-6-|
|---------------------------------|

Vile, crass
Gaunt, ashen-faced

RIFF A, RIFF A, Chorus

Cringing, crawling, hiking in disgrace

Shredding skin, changing face
Snake eyed, never making sense
Blinded with conceit
Lost in total paranoia
Fallacies in judgment
But no open regret
In winter winds or summer breeze
The only truth is fear

Pitiful, dismal, spiteful, parasite - scum

Vile, crass, gaunt, ashen-faced
Cringing, crawling, hiking in disgrace
Liar!

Like us on Facebook.....
-> Loading Time :0.0075 sec