Pandemonium Tabs & Lyrics by Kreator

Pandemonium

guitar tabs lyrics

Kreator

Album : Endorama thrash metal PlayStop


Email for any question

Transcribed by: Konstantin Radchenko
e-mail: kostarv@yahoo.com
Date: Friday, 9 Feb 2001 19:54:59 updated 10.09.2002
Band: Kreator
Song: Pandemonium
Music & Lyrics by Miland Petrozza
Published by Edition Drakkar/AOM. BMG UFA
Album: ENDORAMA

Version 2.0
All guitars tuned in D

...and here we go
Intro:
Riff 1
Gtr1 + Gtr2
||---------------------------------------------------------------------|
||---------------------------------------------------------------------|
||---9:--------------11:-----12:----11:---------12--11--9:-------------|
||---------------------------------------------------------------------|
||---------------------------------------------------------------------|
||---------------------------------------------------------------------|
| |
| |
||---------------------------------------------------------------------|
||---------------------------------------------------------------------|
||---------------------------------------------------------------------|
||---------------------------------------------------------------------|
||---------------------------------------------------------------------|
||---000-000-000-000-000-000-000-000--333-333-333-333-333-333-333-333--|
p.m. .. ... ... ... ... ... ... ... ... ... ... ... ... ... ... ...


Gtr1 + Gtr2
|----------------------------------------------------------------------|
|----------------------------------------------------------------------|
|---9:---------11:--------12:--------14:--------12:---10:----12:-------|
|----------------------------------------------------------------------|
|----------------------------------------------------------------------|
|----------------------------------------------------------------------|
| |
| |
|----------------------------------------------------------------------|
|----------------------------------------------------------------------|
|----------------------------------------------------------------------|
|----------------------------------------------------------------------|
|-----------------------------------------------------------------555--|
|---555-555-555-555-555-555-555-555--111-111-111-111-111-111-111--333--|
p.m.... ... ... ... ... ... ... ... ... ... ... ... ... ... ...



Gtr1 + Gtr2
|---------------------------------------------------------------------|
|---------------------------------------------------------------------|
|---9:--------------11:-----12:----11:---------12--11--9:-------------|
|---------------------------------------------------------------------|
|---------------------------------------------------------------------|
|---------------------------------------------------------------------|
| |
| |
|---------------------------------------------------------------------|
|---------------------------------------------------------------------|
|---------------------------------------------------------------------|
|---------------------------------------------------------------------|
|---------------------------------------------------------------------|
|---000-000-000-000-000-000-000-000--333-333-333-333-333-333-333-333--|
p.m. .. ... ... ... ... ... ... ... ... ... ... ... ... ... ... ...


Gtr1 + Gtr2
|----------------------------------------------------------------------||
|----------------------------------------------------------------------||
|---9:---------11:--------12:--------16:--------14:----12:----14:------||
|----------------------------------------------------------------------||
|----------------------------------------------------------------------||
|----------------------------------------------------------------------||
| |
| |
|----------------------------------------------------------------------||
|----------------------------------------------------------------------||
|----------------------------------------------------------------------||
|----------------------------------------------------------------------||
|-----------------------------------------------------------------555--||
|---888-888-888-888-888-888-888-888--777-777-777-777-777-777-777--333--||
p.m.... ... ... ... ... ... ... ... ... ... ... ... ... ... ...



Riff 2
... both guitars
||------------------------------------------------------------------------|
||------------------------------------------------------------------------|
||------------------------------------------------------------------------|
||----------------5-3-5------------5-3-7-------------5-3-7--7-5-2---------|
||---2------------3-1-3------------3-1-5-------------3-1-5--5-3-0--7-5----|
||---0---0-0-000----------0-0-000-----------0-0-000----------------5-3----|
p.m. . . ... . . ... . . ...


|------------------------------------------------------------------------||
|------------------------------------------------------------------------||
|------------------------------------------------------------------------||
|----------------5-3-5------------5-3-7-------------5-3-7--7-5-2---------||
|---2------------3-1-3------------3-1-5-------------3-1-5--5-3-0--7-5-2--||
|---0---0-0-000----------0-0-000-----------0-0-000----------------5-3-0--||
p.m. . . ... . . ... . . ...



Riff 3
... both guitars
__Pandemonium all around__
||------------------------------------------------------|
||------------------------------------------------------|
||------------------------------------------------------|
||------------------------------------------------------|
||-------------------------------7-5-9---10-7-5--7-5-2--|
||-------------------------------5-3-7---8--5-3--5-3-0--|


__Can't you fell it coming down__
|-------------------------------------------------------------|
|-------------------------------------------------------------|
|-------------------------------------------------------------|
|-------------------------------------------------------------|
|--------------------------------------7-5-9---10-7-5--7-5-2--|
|--------------------------------------5-3-7---8--5-3--5-3-0--|


__ Pandemonium in my brain __
|-------------------------------------------------------------|
|-------------------------------------------------------------|
|-------------------------------------------------------------|
|-------------------------------------------------------------|
|--------------------------------------7-5-9---10-7-5--7-5-2--|
|--------------------------------------5-3-7---8--5-3--5-3-0--|


__ Over and over and over again __
|----------------------------------------|
|*--------------------------------------*|
|----------------------------------------| (3 times,then...)
|--------------------------------5-3-5---|
|*-------------------------------3-1-3--*|
|----0-0-0-0-0-0-0-0-0-0-0-0-------------|
p.m. . . . . . . . . . . . .



__ Over and over and over again __
|-----------------------------------||
|-----------------------------------||
|-----------------------------------||
|---5-3-5---5-3-5-------------------||
|---3-1-3---3-1-5----10-7-5--7-5-2--||
|--------------------8--5-3--5-3-0--||


Verse
Riff 1

__And now you know the answer__ __And now you see the truth__

__Swallow this bitter pill__ __ As all religion dies for you__

__And all the things that happened__ __ In all those times long gone__

__Gave birth to life like lies__ __Apocalyptic pandemoni________



Chorus
Riff 4
... both guitars
____________um __Pandemoni________
||----------------------------------------------5:---------------------|
||----------------------------------------------5:---------------------|
||----------------------------------------------7:---------------------|
||----------------------------------------4--5--7:---------------------|
||----------------------------------------2--3--5:--------------7------|
||---------------000-000-000-000-000-0-0--------5:--------------5------|
p.m. .. ... ... ... ... .


____________um
|-----------------------------------------5:--------------------||
|-----------------------------------------5:--------------------||
|-----------------------------------------7:--------------------||
|----------------------------------4--5---7:--9\7---5:---9\7----||
|----------------------------------2--3---5:--7\5---3:---7\5----||
|---------000-000-000-000-000-0-0---------5:--------------------||
p.m. .. ... ... ... ... .


Fill 1
||---------||
||---------||
||---------||
||---------||
||--2------||
||--0------||


Riff 3

__Pandemonium in the air__ __god has left us in despair__

__Desperate could not stand the pain__ __Over and over and over again__

__Over and over and over again__ __Over and over and over again___

__Over and over and over again__


Verse
Riff 1

__Now that your world is buring__ __Now that it ends in tears__

__Inferno has arrived__ __Nothing can make it disappear__

__And all the things that happened__ __In all those times long gone__

__Gave birth to life likes lies__ __Apocalyptic pandemoni______


Chorus
Riff 4
____________um __ Pandemonium_______


Interlude
Riff 5
Gtr1 + Gtr2
__A psychodrama is dragging you__ __Out of a life surreal__
||--------------------------------------------------------------------|
||--------------------------------------------------------------------|
||--------------------------------------------------------------------|
||--------------------------------------------------5-4-2---2---------|
||------7-5-4-7-5:---7-5-4:---5-4-2:---7-5-4-7-5:---------5---5-4-2---|
||--------------------------------------------------------------------|
| |
| |
||--------------------------------------------------------------------|
||--------------------------------------------------------------------|
||-------7:-----------------------------------------------------------|
||-------7:-----------------------------5:----------------------------|
||-------5:-----------------------------5:----------------------------|
||--------------------------------------3:----------------------------|



__ A better future waits for you __ __ A life that might have been __
|--------------------------------------------------------------------|
|--------------------------------------------------------------------|
|--------------------------------------------------------------------|
|--------------------------------------------------5-4-2---2---------|
|------7-5-4-7-5:---7-5-4:---5-4-2:---7-5-4-7-5:---------5---5-4-2---|
|--------------------------------------------------------------------|
| |
| |
|--------------------------------------------------------------------|
|--------------------------------------------------------------------|
|-------7:-----------------------------------------------------------|
|-------7:----------------------------5:-------------------2:---4:---|
|-------5:----------------------------5:-------------------2:---4:---|
|-------------------------------------3:-------------------0:---2:---|


__ So give your soul and you may live __ __ Limitless fantasies __
|--------------------------------------------------------------------|
|--------------------------------------------------------------------|
|--------------------------------------------------5-4-2----2--------|
|------7-5-4-7-5:---7-5-4:---5-4-2----7-5-4-7-5:---------5---5-4-2---|
|--------------------------------------------------------------------|
|--------------------------------------------------------------------|
| |
| |
|--------------------------------------------------------------------|
|--------------------------------------------------------------------|
|-------9:-------------------------------------5:--------------------|
|-------9:-------------------------------------5:---------7:--9:-----|...louder
|-------7:-------------------------------------3:---------7:--9:-----|
|---------------------------------------------------------5:--7:-----|


__ This celebration of the night __ __ Can light your shattered life __
|--------------------------------------------------------------------||
|--------------------------------------------------------------------||
|--------------------------------------------------5-4-2----2--------||
|------7-5-4-7-5:---7-5-4:---5-4-2----7-5-4-7-5:---------5---5-4-2---||
|--------------------------------------------------------------------||
|--------------------------------------------------------------------||
| |
| |
|--------------------------------------------------------------------||
|--------------------------------------------------------------------||
|-------9:-------------------------------------5:--------------------||
|-------9:-------------------------------------5:---------7:--9:-----||
|-------7:-------------------------------------3:---------7:--9:-----||
|---------------------------------------------------------5:--7:-----||


Gtr 1 plays the solo, Gtr 2 plays Riff 6...

Gtr 1
Solo (very motherfucking FAST!!!!!!)
||---0-7-10-12-10-7-0-0-7-10-12-10-7-0-0-8-10-12-10-8-0-0-7-8-10-8-7-0---------|
||*----------------------------------------------------------------------------|
||-----------------------------------------------------------------------------|
||-----------------------------------------------------------------------------|
||*----------------------------------------------------------------------------|
||-----------------------------------------------------------------------------|


Gtr 1 x2
|---0-5-8-10-8-5-0-0-5-8-10-8-5-0-0-6-8-10-8-6-0-0-5-6-8-6-5-0---|
|---------------------------------------------------------------*|
|----------------------------------------------------------------|
|----------------------------------------------------------------|
|---------------------------------------------------------------*|
|----------------------------------------------------------------|



Gtr 1
|--0-5-7-8-7-5-0-0-0-5-7-8-7-5-0-0--0-7-9-10-9-7-0-0-0-7-9-10-9-7-0-0--|
|----------------------------------------------------------------------|
|----------------------------------------------------------------------|
|----------------------------------------------------------------------|
|----------------------------------------------------------------------|
|----------------------------------------------------------------------|


Gtr 1
|--0-8-10-12-10-8-0-0--0-8-10-12-10-8-0-0---0-7-9-10-9-7-0-0---0-5-7-8-7-5-0:--||
|------------------------------------------------------------------------------||
|------------------------------------------------------------------------------||
|------------------------------------------------------------------------------||
|------------------------------------------------------------------------------||
|------------------------------------------------------------------------------||



Riff 6
Gtr2
____If you believe...
||------------------------------------------------------------------------------------|
||------------------------------------------------------------------------------------|
||-----------------------9:------------7:-------------9:-------------7:---------------|
||-------9:--------------9:---10:--9:--7:----9:--10:--9:----10:--9:--7:----9:--10:----|
||-------9:--------------7:---10:--9:--5:----9:--10:--7:----10:--9:--5:----9:--10:----|
||-------7:--------------------8:--7:--------7:---8:---------8:--7:--------7:---8:----|


...then it ends like this:
|--------------------------------------------------------------------------------------------||
|--------------------------------------------------------------------------------------------||
|--------------------------------------------------------------------------------------------||
|--------------------------------------------------------------------------------------------||
|--------------------------------------------------------------------------------------------||
|----555-555-555-555--777-777-777-777--888-888-888-888-10-10-10--10-10-10-11-11-11--11-11-11-||
p.m. ... ... ... ... ... ... ... ... ... ... ... ... . . . . . . . . . . . .



Verse
Riff 1

__And now you know the answer__ __And now you see the truth__

__Swallow this bitter pill__ __ As all religion dies for you__

__and all the things that happened__ __ In all those times long gone__

__Gave birth to life like lies__ __Apocalyptic pandemoni________


Chorus
Riff 4 (2 times)
____________um __ Pandemonium_______

__ Pandemonium_______ __ Pandemonium_______



Interlude (same as above, only the ending is a bit different... here it is...)
Riff 5

__A psychodrama is dragging you__ __Out of a life surreal__

__ A better future waits for you __ __ A life that might have been __

__ So give your soul and you may live __ __ Limitless fantasies __

__ This celebration of the night __ __ Can light your shattered __


Ending
__life__ __If you believe__________________
|-------------------------------------------|
|-------------------------------------------|
|--5--4--2-----2----------------------------|
|-----------5----5--4--2--------------------|
|-------------------------2:----------------|
|-------------------------0:----------------|
...fading out


Legend:
: - let ring

...If you have any comments, corrections, missing parts or you just wanna talk to somebody, be sure to e-mail me...



"THAT WE COME TO THIS EARTH TO LIVE IS UNTRUE. WE CAME BUT TO SLEEP, TO DREAM"
(AZTEC POEM, ANONYMOUS)


Like us on Facebook.....
-> Loading Time :0.0121 sec