Out of Site Tabs & Lyrics by Built to Spill

Out of Site

guitar tabs lyrics

Built to Spill

Album : Perfect from Now On indie rock PlayStop


Chords:
C: x32010
Cm: x35543
F: 133211
G: 320033
F#: 244322
Fmaj7/9:133010
Cadd9: x30010
Am: x02210
D: xx0232

D9: x54550
G9b5: 3x3445
Dm7: x56545
Ab: 466544
Bb: 688766


Intro:

C Cm F C (2)

C Cm F C C
F C
e|--------------------------------------------------------------------------|
B|--------------------------------------------------------------------------|
G|--9-7-5---8---7-5--------------9-7-5-8-7-5-7-5---10--9--------------------|
D|--------------------------------------------------------------------------|
A|--7-5-3---6---5-3--------------7-5-3-6-5-3-5-3---8---7--------------------|
E|--------------------------------------------------------------------------|

C Cm F C C Cm
F C
e|--------------------------------------|
B|--------------------------------------|
G|--------------------------9---8---5---|
D|--10-9-12-6----5---5------------------|
A|--------------------------7---6---3---|
E|--8--7-10-4----3---3------------------|

G F# C G F# C

G F# C
raised unright
G F# C
so uptight
F Fmaj7/9 C Cadd9
but why blame you
G F
you wouldn't be if you could choose

Am D F
most of the time it's out of site
Am D F
it hit me today
Am D F
who gave who the right
Am D F
who took mine away
Am D
what a sight
F
what a sound
G
what a way to bring people down
what a way to bring me down

Am D F (4) G

C D9 F
I know that you'll get yours when you get empty
Am G9b5 Dm7 Ab Bb
it's so close

C D9 F Am G9b5 Dm7 Ab Bb
I'm sure that you would rather do that than be in your clothes

C D9 F Am G9b5 Dm7 Ab Bb (2)


C Cm F C (4)

C Cm
you must have waited a long time
F C
bet you were disappointed
Cm
I waited longer than that
F C
just goes to prove
C Cm
proving's illogical but
F C
it's sometimes necessary
Cm
proving's illogical but
F C
it's a cinch

G F# C G F# C

G F# C
fa-la-la
G F# C
fa-la-laaa

F Fmaj7/9 C Cadd9
but why blame you
G F
you wouldn't be if you could choose

Am D F
most of the time it's out of site

it hit me today
Am D F
who gave who the right
Am
who took mine away
D
what a sight
F
what a sound
Am
what a way to bring people down
D F
what a way to bring me down
Am D F Am D
....
it goes on and on and on.....

Like us on Facebook.....
-> Loading Time :0.0118 sec