One of a Very Few of a Kind Tabs & Lyrics by of Montreal

One of a Very Few of a Kind

guitar tabs lyrics

of Montreal

Album : The Bedside Drama: A Petite Tragedy albums i own PlayStop


-------------------------------------------------------------------------------
“One of a Very Few of a Kind” by Of Montreal
-------------------------------------------------------------------------------
Tabbed by: J. Alexander Genz
Email: genzplusmalcolmxforever@yahoo.com

Tuning: standard, slightly flat. I hope you have your kazoorchestra ready for this jam.


Intro/chorus:


E B7th/Bbdim A E Bbdim
E|--4---4---4---4---x---x---x---x-5-5---5---5-4-2---0------0-x-0-x-0-x-0-x---|
B|--5---5---5---5-4-x-4-x-4-x-4-x-5-5---5---5-------0------4-x-4-x-4-x-4-x---|
G|--4---4---4---4-2-x-3-x-2-x-3-x-6-----6---6-------1------3-x-3-x-3-x-3-x---|
D|2-------2-------4---2---4---2---7------------------------2---2---2---2-----|
A|----2-------2---2---4---2---4-------7--------------0h2p0-4---4---4---4-----|
E|----------------2-------2---------------5-------0--------------------------|

Verse chords:

Fadd4: 113211
F: 133211
Amaj11: x00454
Edim: xxx353

Fill:
e|--------|
B|--------|
G|--------|
D|--------|
A|0-------|
E|--3-2-0-|


Fadd4
Your hair is so dark
F
Its curls are dancing flames of black fire
Amaj11 Edim (fill)
Allah created you just for us to admire


E B7th/Bdim
I doubt that you're the only one like you that I'll find
A E
But for sure you're one of a very few of a kind
Bbdim
Yes, you are


Fadd4
Your eyes are so clear
F
They seem to speak to me from a gleeful world
Amaj11 Edim (fill)
And they look like singing moons made of black pearl

E B7th/Bbdim
I’m not sayin that you're the only one like you that I'll find
A E
But for sure you're one of a very few of a kind
Bbdim
Yes, you are


(kazoo solo backing: verse/chorus)
Fadd4 F Amaj11 Edim (fill)

E B7th A E Bdim


Fadd4 F
You're as stunning as a tidal wave of wisteria
Amaj11 Edim (fill)
Just a smile from you has sent gents into hysteria


E B7th/Bdim
I doubt that you're the only one like you that I'll find
A E
But for sure you're one of a very few of a kind
Bdim A E
One of a very few of a kind!



Like us on Facebook.....
-> Loading Time :0.0118 sec