One Wild Night Tabs & Lyrics by Bon Jovi

One Wild Night

guitar tabs lyrics

Bon Jovi

Album : Crush albums i own PlayStop


Bon Jovi, One Wild Night.
Tabbed by Sebastian Lapidus, sebaslap@yahoo.com.

I tabbed this song four months ago but it wasn't complete and it has some mistakes. So here is the complete version.

Intro:

1st guitar

e|-------------------|-----------------------|

B|-------------------|-----------------------|
G|-5-5---------------|-3-3-------------------|
D|-5-5---------------|-3-3-------------------|
A|-3-3---1-----------|-1-1---1-3-3-1-----1---|
E|-----3---4-4-3-4-4-|-----3---------3-3---3-|

e|-------------------|---------------------|
B|-------------------|---------------------|
G|-5-5---------------|-3-3-----------------|
D|-5-5-----1-1---1---|-3-3-----------------|
A|-3-3-1-3-----3---3-|-1-1---1-3-3-1---1-3-|
E|-------------------|-----3---------3-----|

2nd guitar:

|C5|Ab5|Bb5|C5|C5|Eb5|Bb5|C5|C5|


Pre Verse:

e|-----|
B|-----|
G|-5-5-|
D|-5-5-|
A|-3-3-|
E|-----|

Verse:

e|-x-x----x-| |-x-x-x-x-x-x-x-x-x-x-x-x-x-x-|
B|-x-x----x-| |-x-x-x-x-x-x-x-x-x-x-x-x-x-x-|
G|-x-x----x-| |-x-x-x-x-x-x-x-x-x-x-x-x-x-x-|
D|-x-x----x-|X 6 then |-x-x-x-x-x-x-x-x-x-x-x-x-x-x-|
A|-x-x----x-| |-x-x-x-x-x-x-x-x-x-x-x-x-x-x-|
E|-x-x----x-| |-x-x-x-x-x-x-x-x-x-x-x-x-x-x-|
Played several times until the
chorus

Chorus:
Same as intro
Post chorus

both guitars:
e|-------------------|
B|-10-8-7-5-3--------|
D|-12-10-8-7-5-3-5-3-|
A|-10-8--6-5-3-1-5-3-|
E|---------------3-1-|

Pre 2nd Verse:

Both guitars
pm________ pm____________
e|-------------------|-----------------------|
B|-------------------|-----------------------|
G|-5-5---------------|-5-5-------------------|
D|-5-5-----------1---|-5-5-------------------|
A|-3-3---1-3-3-1---3-|-3-3---1-3-3-1-----1---|
E|-----3-------------|-----3---------3-3---3-|

2nd Verse:

e|-x-x----x-|
B|-x-x----x-|
G|-x-x----x-|
D|-x-x----x-| Repeat this a few times
A|-x-x----x-|
E|-x-x----x-|

Pre 2nd Chorus

e|-------------------|-----------------------|
B|-------------------|-----------------------|
G|-5-5---------------|-5-5-------------------|
D|-5-5-----------1---|-5-5-------------------|
A|-3-3---1-3-3-1---3-|-3-3---1-3-3-1-----1---|
E|-----3-------------|-----3---------3-3---3-|

|-------------------|---------------------|
|-------------------|---------------------|
|-5-5---------------|---------------------|
|-5-5-----------1---|---------------------|
|-3-3---1-3-3-1---3-|---------------------|
|-----3-------------|-8\\------------------|

Repeat chorus and post chorus

Solo:
1st guitar:

e|-------------------------|-------------------------|
B|-------------------------|-------------------------|
G|-12/17-15h17-17p15-12/17-|-17-b20-(x4)-17-15-12/17-|
D|-------------------------|-------------------------|
A|-------------------------|-------------------------|
E|-------------------------|-------------------------|

e|----------------------|
B|----------------------|
G|----------------------|
D|-17-15-13-12-10-8-5-3-|
A|----------------------|
E|----------------------|

2nd guitar (with the same rythm of intro)
e|-------------------|-----------------------|
B|-------------------|-----------------------|
G|-5-5---------------|-3-3-------------------|
D|-5-5---------------|-3-3-------------------|
A|-3-3---1-----------|-1-1---1-3-3-1-----1---|
E|-----3---4-4-3-4-4-|-----3---------3-3---3-|

e|-------------------|---------------------|
B|-------------------|---------------------|
G|-5-5---------------|-3-3-----------------|
D|-5-5-----1-1---1---|-3-3-----------------|
A|-3-3-1-3-----3---3-|-1-1---1-3-3-1---1-3-|
E|-------------------|-----3---------3-----|

3rd guitar:

|C5|Ab5|Bb5|C5|C5|Eb5|Bb5|C5|C5|

Last chorus:

1st guitar

e|-------------------|-----------------------|
B|-------------------|-----------------------|
G|-5-5---------------|-3-3-------------------|
D|-5-5---------------|-3-3-------------------|
A|-3-3---1-----------|-1-1---1-3-3-1-----1---|
E|-----3---4-4-3-4-4-|-----3---------3-3---3-|

e|-------------------|---------------------|
B|-------------------|---------------------|
G|-5-5---------------|-3-3-----------------|
D|-5-5-----1-1---1---|-3-3-----------------|
A|-3-3-1-3-----3---3-|-1-1---1-3-3-1---1-3-|
E|-------------------|-----3---------3-----|

2nd guitar:

Repeat chorus and post chorus 3 times
(2nd and 3rd play the solo).

=NOTE= in the last chorus the first part of the solo is repeated. When you listen to the song you'll konw what I mean...pay attention to the song.
:: Ultimate Guitar Archive ::
http://www.ultimate-guitar.com




Like us on Facebook.....
-> Loading Time :0.0333 sec