One Step Closer Tabs & Lyrics by LINKIN PARK

One Step Closer

guitar tabs lyrics

LINKIN PARK

Album : One Step Closer nu metal PlayStop


Music X Tabs [http://www.mxtabs.net]
?Author/Artist: Linkin Park
Title: One Step Closer
Album: Hybrid Theory
Transcribed by: Rune From Denmark!!!!! Fc Barcelona Is Cool
Email: Bradisgod7@hotmail.com

tuned down one half step drop D
*= harmonic

------------------------------------------------------------------------------
------------------------------------------------------------------------------
------------------------------------------------------------------------------
------------------------------------------------------------------------------
------------7-----------------------------------------------------------------
-0--*5--*7------8--*7--0--3---------------------------------------------------
Riff 2

------------------------------------------------------------------------------
------------------------------------------------------------------------------
-------------9----------------5------------------------------------------------
---------x--------8---7--------------------------------------------------------
-0---0---x---7----8---7---0---3------------------------------------------------
-0---0---x--------8---7---0----------------------------------------------------
Riff 3

------------------------------------------------------------------------------
-------------------------------------------*2.6-------------------------------
------------------------------------------------*2.6-*2.6---------------------
-5--5--x--x--x--5--5--x-x-x--5--5--x-x-x------------------*2.6----------------
-5--5--x--x--x--5--5--x-x-x--5--5--x-x-x--------------------------------------
-5--5--x--x--x--5--5--x-x-x--5--5--x-x-x--------------------------------------
Riff 4

------------------------------------------------------------------------------
------------------------------------------------------------------------------
------------------------------------------------------------------------------
-0--0--0--12--10--10-\\--7--7--10--10--5--5--7--7--3--3------------------------
-0--0--0--12--10--10-\\--7--7---8---8--5--5--7--7--1--1------------------------
-0--0--0--12--10--10-\\--7--7---8---8--5--5--7--7--1--1------------------------
Riff 5

------------------------------------------------------------------------------
------------------------------------------------------------------------------
------------------------------------------------------------------------------
-1--0--x--x--x--0--3--1--0--6--0--3-------------------------------------------
-1--0--x--x--x--0--3--1--0--6--0--3-------------------------------------------
-1--0--x--x--x--0--3--1--0--6--0--3-------------------------------------------
Riff 5 second time

------------------------------------------------------------------------------
------------------------------------------------------------------------------
------------------------------------------------------------------------------
-1--0--x--x--x--0--3--1--0--1---1--0------------------------------------------
-1--0--x--x--x--0--3--1--0--1---1--0------------------------------------------
-1--0--x--x--x--0--3--1--0--1---1--0------------------------------------------
[-- P.M.--]

Like us on Facebook.....
-> Loading Time :0.0094 sec