Not One Truth Tabs & Lyrics by Hatebreed

Not One Truth

guitar tabs lyrics

Hatebreed

Album : Satisfaction Is the Death of Desire hardcore PlayStop


===============================================================================
Not One Truth - Hatebreed
===============================================================================
Tabbed by: brandon1315
Email: brschunk_15@hotmail.com

Tuning: EADGBe

Easy song except the chords can be tricky to get down.

(Fast Drum Part)

Riff 1:
e|---------------------------------------------------------|
B|---------------------------------------------------------|
G|---------------------------------------------------------|
D|---------------------------------------------------------|
A|-5--4--6--5-----5--4--6--5-----5--4--6--5-----5--4--6--5-|
E|-3--2--4--3-----3--2--4--3-----3--2--4--3-----3--2--4--3-|x2
"Living as we rot..."
Chorus Riff:
pm---------------------------------------------|
e|---------------------------------------------------------|
B|---------------------------------------------------------|
G|---------------------------------------------------------|
D|--------------------------------------------------2--2---|
A|--------------------------------------------------0--0---|
E|-0--0--0---0--0-0--0---0-0-0--0--0--0---0--0--0----------|x4
"Not one truth..."

Riff 2:
pm-----------| pm-----------| pm----|
|------------------------------------------------| |-----------------|
|------------------------------------------------| |-----------------|
|------------------------------------------------| |-----------------|
|------------------------------------------------| |-----------------|
|-5--5/4--2---------------5--5/4--2--------------| |-5--5/4--2-------|
|-3--3/2--0--0-0-0-0-0-0--3--3/2--0--0-0-0-0-0-0-|x4 |-3--3/2--0--0-0-0|
"Our eyes crystal clear..."
===============================================================================
Song Order:
Fast Drum Part
Riff 1
Chorus Riff
Riff 2
Riff 1
Chorus Riff
Riff 1 (let last chord ring)(only does the progression 5 times instead of 8)
===============================================================================

| / slide up
| \ slide down
| h hammer-on
| p pull-off
| ~ vibrato
| + harmonic
| x Mute note
|pm Palm mute
===============================================================================
Any comments or problems send to: brschunk_15@hotmail.com

*I wish Hatebreed had solos in their songs*

Like us on Facebook.....
-> Loading Time :0.0111 sec