Not Coming Home Tabs & Lyrics by Maroon 5

Not Coming Home

guitar tabs lyrics

Maroon 5

Album : Songs About Jane albums i own PlayStop


-------------------------------------------------------------------------------
Not Coming Home - Maroon 5
-------------------------------------------------------------------------------
Tabbed by:Tom_d00d


Tuning: Standard

Guitar 1 - Light distortion
Guitar 2 - Light distortion with Wah


Intro/verse guitar 1

e|--------------------------------------------------------------------------|
B|--------------------------------------------------------------------------|
G|--------------------------------------------------------------------------|
D|--------2---------2--4----2-----------------------------------------------|
A|---3-4------3-4-----------------------------------------------------------|
E|------------------------------5-------5-------5------4--------------------|

Intro/ guitar 2. Repeat x2
e|------------------------------------------------------------------------------------------|
B|------------------------------------------------------------------------------------------|
G|---x-x-11-x-x-9-x-x-8-x-x-6-x-x-4-x-x-4h6-x-x-6h8-x-x-8/9---8------x-x-8/9---8-----x-6-5--|
D|------------------------------------------------------------------------------------------|
A|------------------------------------------------------------------------------------------|
E|------------------------------------------------------------------------------------------|
Verse/ Guitar 2/ Fill

e|---------------------------------------------------------------------------|
B|---------------------------------------------------------------------------|
G|---------------------------------------------------------------------------|
D|--x-x-7h9----7--x--9---6---------------------------------------------------|
A|---------------------------------------------------------------------------|
E|---------------------------------------------------------------------------|

Chorus Guitar 1 & 2
C#M
e|--x-x-9-9-----x-x--9-9--x-x--9-9---x-x-9-9---------------------------------|
B|--x-x-9-9-----x-x--9-9--x-x--9-9---x-x-9-9---------------------------------|
G|--x-x-9-9-----x-x--9-9--x-x--9-9---x-x-9-9---x-x-9h11----------------------|
D|---------------------------------------------x-x-9h11----------------------|
A|---------------------------------------------------------------------------|
E|---------------------------------------------------------------------------|

For the rest of the chorus play the C#M chord listen to the song for timing, the second
is played with all C#M and no fills. At the end of this chorus he play G#7 which looks
this

e|-----8---------------------------------------------------------------------|
B|-----7---------------------------------------------------------------------|
G|-----8---------------------------------------------------------------------|
D|---------------------------------------------------------------------------|
A|---------------------------------------------------------------------------|
E|---------------------------------------------------------------------------|

Breakdown chorus/ Guitar 1 / Play this part only once
E|---------------------------------------------------------------------------|
e|-------------------9---------8-----------9---------------------------------|
B|-----2-------------9---------7-----------9---------------------------------|
G|-----2-----------------------8--11b13-11-9---------------------------------|
D|-----4---------9h11--------------------------------------------------------|
A|---------------------------------------------------------------------------|
E|---------------------------------------------------------------------------|

Guitar 2/ Guitar 1 plays 2nd chorus over the top

e|---------------------------------------------------------------------------|
B|----10/----10----12\9--/7--7--9\5------------------------------------------|
G|---------------------------------------------------------------------------|
D|---------------------------------------------------------------------------|
A|---------------------------------------------------------------------------|
E|---------------------------------------------------------------------------|

SONG ORDER

Intro;
Verse;
Chrous;
Intro x1;
Verse;
2nd Chrous;
Intro x 1;
Breakdown Chrous;
Intro/Chorus/Intro/Chorus


| / slide up
| \ slide down
| h hammer-on
| p pull-off
| ~ vibrato
| + harmonic
| x Mute note
===============================================================================

Like us on Facebook.....
-> Loading Time :0.0355 sec