Nonexistence Tabs & Lyrics by Six Feet Under

Nonexistence

guitar tabs lyrics

Six Feet Under

Album : Warpath death metal PlayStop


Tabbed by:THE SANDMAN
Email:[email protected]


Tuning: D G C F A D


|--------------------------------------------------------|
|--------------------------------------------------------|
|--------------------------------------------------------|

|-2------2------2------2------2------2------5----8----3--|
|-2------2------2------2------2------2------5----8----3--|
|-0--0-0-0--0-0-0--0-0-0--0-0-0--0-0-0--0-0-3--0-6--0-1--|
... ... ... ... ... ... . .


|---------------------------------------|
|---------------------------------------|
|---------------------------------------|
|-8---9--9-9-9--2-2-2---5----3----------|
|-8---9--9-9-9--2-2-2---5----3----------|
|-6-0-7--7-7-7--0-0-0-0-3--0-1--0-0-0-0-|

|---------------------------------------|
|---------------------------------------|
|---------------------------------------|
|-8---9--9-9-9--2-2-3---5----3----------|
|-8---9--9-9-9--2-2-3---5----3----------|
|-6-0-7--7-7-7--0-0-1-0-3--0-1--0-0-0-0-|


|---------------------------------------|
|---------------------------------------|
|---------------------------------------|
|-8---9--9-9-9--2-2-2---5----3----------|
|-8---9--9-9-9--2-2-2---5----3----------|
|-6-0-7--7-7-7--0-0-0-0-3--0-1--0-0-0-0-|

|--------------|
|--------------|
|--------------|
|-8---9--9-9-9-|
|-8---9--9-9-9-|
|-6-0-7--7-7-7-|


|-----------------------------------|
|-----------------------------------|
|-----------------------------------|
|-2-2-------3-3----5-5-------6-6----|
|-2-2-------3-3----5-5-------6-6----|
|-0-0-0-0-0-1-1----3-3-3-3-3-4-4----|



|------------------|
|------------------|
|------------------|
|-5----8----3--2-2-|
|-5----8----3--2-2-|
|-3--0-6--0-1--0-0-|

Like us on Facebook.....
-> Loading Time :0.0146 sec