No Jesus, No Beast Tabs & Lyrics by Immolation

No Jesus, No Beast

guitar tabs lyrics

Immolation

Album : Failures for Gods death metal PlayStop


--- IMMOLATION ---
"No Jesus, No Beast"
From album: "Failures For Gods"

TABULATURE LEGEND:
" - tremolo h - hammer on
~ - vibrato \ - slide down
p - pull off / - slide down
tr - trill ^ - pinch harmonics
= - sustained note b - bend string

p.m. - palm muting t - tapping

TUNING: C [C, F, Bb, eb, g, c]

[Riff 1a (x2)]
||------------------------------------||
||o----------------------------------o||
||------------------------------------||
||------------------------------------||
||o-33330000222211113333000022221111-o||
||------4444------------4444----------||

[Riff 1b (x8)]
||------------------------------------||
||o----------------------------------o||
||------------------------------------||
||------------------------------------||
||o-33330000222211113333000022221111-o||
||------4444------------4444----------||
| |
||------------------------------------||
||o----------------------------------o||
||------------------------------------||
||--5~--4~~~=======--6~~~~~~========--||
||o----------------------------------o||
||--3~--2~~~=======--4~~~~~~========--||

[Riff 2 (x4)]
||----------------------------||
||o--------------------------o||
||--4-------------7~~~======--||
||--4-------------8~~~======--||
||o-2-------2-----8~~~======-o||
||-----0-0--0--1--6~~~======--||
. .

[RIFF 1a] [RIFF 1b (x6)] [RIFF 2 (x4)] [RIFF 1a (x8) /under solo 1/]

[Riff 3a (x2)] [Riff 3b (x2)]
||--------------------------||-||---------------------------||
||o------------------------o||-||o-------------------------o||
||--7====-------------------||-||--7------------------------||
||--6====--------7~~--7~~---||-||--6--------------7~~--7~~--||
||o-5====------------------o||-||o-5---2-------------------o||
||--4====-0-0-0--5~~--5~~---||-||--4---0---0-0-0--5~~--5~~--||
. . . .

[Riff 4]
||--------------------------[x4]-||---------------------|-
||o-----------------------------o||---------------------|-
||------------------------4--4---||---------------------|-
||-------------------------------||-0-0-----1-1-----8-8-|-
||o-2---------^----2------2--2--o||-4-4-5-5-5-5-6-6-6-6-|-
||--0--0--0-0-1~~--0--0-0--------||-3-3-4-4-5-5-6-6-6-6-|-
| . . . . . . . | |
||--------------------------[x4]-||---------------------|-
||o-----------------------------o||---------------------|-
||------------------------4--4---||---------------------|-
||-------------------------------||-0-0-----1-1-----8-8-|-
||o-2---------^----2------2--2--o||-4-4-5-5-5-5-6-6-6-6-|-
||--0--0--0-0-1~~--0--0-0--------||-3-3-4-4-5-5-6-6-6-6-|-
. . . . . . .

-||--------------------------[x4]-||-----------------------------|-
-||o-----------------------------o||-----------------------------|-
-||------------------------4--4---||-----------------------------|-
-||-------------------------------||-----------------------------|-
-||o-2---------^----2------2--2--o||-2---------^---2---------^---|-
-||--0--0--0-0-1~~--0--0-0--------||-0--0--0-0-1~~-0--0--0-0-1~~-|-
| . . . . . . . | . . . . . . . . |
-||--------------------------[x4]-||-----------------------------|-
-||o-----------------------------o||-----------------------------|-
-||------------------------4--4---||-----------------------------|-
-||-------------------------------||-----------------------------|-
-||o-2---------^----2------2--2--o||-2---------^---2---------^---|-
-||--0--0--0-0-1~~--0--0-0--------||-0--0--0-0-1~~-0--0--0-0-1~~-|-
. . . . . . . . . . . . . . .

-||--------------------------[x4]-||-----------------------------[x4]-||
-||o-----------------------------o||o--------------------------------o||
-||------------------------4--4---||----------------------------4~~---||
-||-------------------------------||----------------------------------||
-||o-2---------^----2------2--2--o||o-2----------^---2----------2~~--o||
-||--0--0--0-0-1~~--0--0-0--------||--0--0-0-0-0-1~~-0--0-0-0-0-------||
| . . . . . . . || . . . . . . . . . . |
-||--------------------------[x4]-||-----------------------------[x4]-||
-||o-----------------------------o||o--------------------------------o||
-||------------------------4--4---||----------------------------------||
-||-------------------------------||----------------------------^-----||
-||o-2---------^----2------2--2--o||o-2----------^---2----------2~~--o||
-||--0--0--0-0-1~~--0--0-0--------||--0--0-0-0-0-1~~-0--0-0-0-0-------||
. . . . . . . . . . . . . . . . .

[RIFF 3a (x2)] [RIFF 3b (x2)]

[Riff 5 (x6)] /under solo 2/
||--------------------------------------------------------------||
||o------------------------------------------------------------o||
||--------------------------------------------------------------||
||----------------------------------------------------------6---||
||o---------2-2-2-2-----------------------------------------5--o||
||--0-0-0-0---------3-3-3-3-5-5-3-3-2-2-2-2-5-5-3-3-1-1-1-1-4---||

[Riff 6 (x2)]
||--------------------------|---------------------------|-
||o-6-----6--7------9-8-----|-6-----6--7----------------|-
||--7-----7--8-----10-9-----|-7-----7--8----------------|-
||--7--8--7--8--4--10-9--8--|-7--8--7--8-------4------3-|-
||o-5--8--5--6--4--8--7--8--|-5--8--5--6-------4------3-|-
||-----6--------2--------6--|----6--------0000-2-0000-1-|-

-|-------------------------|-------------------------||
-|-6-----6--7------9-8-----|-6-----6--7-------------o||
-|-7-----7--8-----10-9-----|-7-----7--8-----3--6-----||
-|-7--8--7--8--4--10-9--8--|-7--8--7--8--4-----------||
-|-5--8--5--6--4--8--7--8--|-5--8--5--6-----1--4----o||
-|----6--------2--------6--|----6--------2-----------||

[RIFF 5 (x4)]

[Riff 7]
||-------------------------[x7]-||----------------------|
||o----------------------------o||----------------------|
||-----------------------4-4-4--||----------------------|
||------------------------------||----------------------|
||o-3------3------3------2-2-2-o||-3------3------3------|
||--1-1111-1-1111-1-1111--------||-1-1111-1-1111-1-1111-|

[Outro]
|-----------------------------------|-----------------777777----------|
|-----------------------------------|-666666--------------------------|
|-4-4-4-4----------4-4-4-4----------|-----------------444444----------|
|-----------------------------------|-333333--------------------------|
|-2-2-2-2----------2-2-2-2----------|---------------------------------|
|---------11111111---------11111111-|--------11111111--------11111111-|

[RIFF 1a (x2)] [RIFF 1b (x8)]

[Ending]
||-----------------------[x3]-||------------------|
||o--------------------------o||------------------|
||--4-------------7~~~======--||-4----------------|
||--4-------------8~~~======--||-4----------------|
||o-2-------2-----8~~~======-o||-2-------2-----3--|
||-----0-0--0--1--6~~~======--||----0-0--0--1--1--|
. . . . .

End of song.






Like us on Facebook.....
-> Loading Time :0.0281 sec