No Conclusion Tabs & Lyrics by of Montreal

No Conclusion

guitar tabs lyrics

of Montreal

Album : Hissing Fauna, Are You the Destroyer? best of 2007 PlayStop


No Conclusion

from Icons, Abstract Thee (2007)


(single notes)
D A
Tonight I feel like I should just destroy myself
F Gm Bb F Bb
Tonight I feel like I should just explode myself myself

(full chords)
D A
Tonight I feel like I should just destroy myself
Fmaj7 Gm7 Bb F6/C Bb
Tonight I feel like I should just explode myself myself

C
There's someone calling my name
C#dim7
But there's nothing to respond
Bb
I lost so much in our collapse
Bbm
Man, my little hope is gone

(muted)F
The voice said don't worry friend
Bb
The darkness is just a suggestion
F
Oh don't worry kid
Bb
This darkeness is just a suggestion
F
Oh don't worry Kevin

Tonight I feel like I should just destroy myself
Tonight I feel like I should just explode myself myself
F6/C Bb
Myself myself

There's someone calling my name
But there's nothing to respond
I lost so much in our collapse
Man, my little hope is gone

The voice said don't worry friend
The darkness is just a suggestion
Oh don't worry kid
This darkeness is just a suggestion
Oh don't worry kid

Tonight I feel like I should just destroy myself
Tonight I feel like I should just explode myself myself
Myself myself

F
C

D
I'm allergic to the world when we're separated
There's nothing in my heart that's worth the beating
C
Feeling like a styrofoam prop
Ennui is eating
D
C
Oh sure we talk and talk
But nothing worth repeating
F
G F#
I feel defeated
F
G F#
I feel defeated
F
G
I feel defeated
(instrumental)
G F#
G F#
G F#

Em B7
Now I'm O.D.ing on your cocksucker blues
A7
You make me uptight
B7 Em
When you just don't work right
Bm C
You painted my prison now something's wrong
Bb C F
And I never ever wanted to write this song

F Bb
F Bb
F F#maj7 F
I'm killing myself but it's not suicide
F#maj7
I'm killing myself
F Bb
F Bb
F F#maj7 F
I'm killing myself but it's not suicide
F#maj7
I'm killing myself
F E F E G#
And my friends will never (friends will never) know
F F# G#
Because I've never been
Bbm B E F#
Because I've never been honest with anyone

F13 E7 F13 E7 A
Always pulling faces from the unreposessing places of the universal mind

D
I'm crippled by the world when we're divided
There's nothing in my heart that's worth the clicking
C
Feeling like a Pamplona bull that's finished kicking
D

C
Although we try to break the loop
It's always stuck repeating

I feel defeated
I feel defeated
I feel defeated

(instrumental section goes much longer, same chords)

Now I'm O.D.ing on your cocksucker blues
You make me uptight
When you just don't work right
Bm C
You painted my prison now something's wrong
Bb C F
And I never ever wanted to write this song
Am Bb
I always thought things would change somehow
C#dim7 Gm
And we would start getting along
C Bb
But it's hopeless, hopeless

And I never ever wanted to write this song
I always thought things would change somehow
And we would start getting along
But it's hopeless, hopeless

And I never ever wanted to write this song
I always thought things would change somehow
And we would start getting along
But it's hopeless, hopeless

And I never ever wanted to write this song
I always thought things would change somehow
And we would start getting along
But it's hopeless, hopeless

(Strings take over, doing the same chords)



Intro:(0:00)

e|------------------------------------------------------------------|
b|------------------------------------------------------------------|
g|------------------------------------------------------------------|
d|------------------------------------------------------------------|
a|-5555555555555555-------------------------------------------------|
e|-----------------555555555555555511111111111111113333333366666666-|

e|----------------------------------|
b|----------------------------------|
g|----------------------------------|
d|----------------------------------|
a|-8888888888888888-----------------|
e|-----------------6666666666666666-|


(3:18)
Guitar
D
e|-----5-------5---------------|
b|-3-------3---7---------------|
g|-----6---4-------2-/-9-\-7---|
d|-4---------------4-/-11\-7---|
a|-----------------------------|
e|-----------------------------|


(3:26)
F G F#
e|------------------------------|
b|------------------------------|
g|------------------------------|
d|------------------------------| x 3
a|-----3-3-5-5/12---------------|
e|-1-1--------------------------|


(3:37)
G F#
e|-----3---8---7---------------|
b|-5-3-3-3-10--9-------7---7-5-|
g|-4---4-----------6-----6-6---|
d|-5-4-------------8-----8-----|
a|-----------------------------| repeat as necessary
e|-----------------------------|


(4:11)
Guitar 1
F Bb F Bb
e|----|-------------------------------|
b|----|-------------------------------|
g|----|---------33333-----------333---|
d|-6s-|33333----33333---33333---333---|
a|----|33333----11111---33333---111---|
e|----|11111------------11111---------|
Guitar 2
e|----|--------------b6r5-------------|
b|----|------4s6------------6---------|
g|----|-------------------------------|
d|----|-------------------------------|
a|----|-------------------------------|
e|----|-------------------------------|


Strings:(outro)
Bb C7 F Fmaj7 Bb C#dim7 Gm C
e|-1-----6---1-0----------------3--3---|
b|-3-----5---1-1-----3---5------3--5---|
g|-3-----5---2-2-----3---3------3--5---|
d|-----------------------5-------------| repeat till end
a|-1-----3-----------1---4---------3---|
e|-----------1-1----------------3------|


**********************************************************
Chords

Fmaj7 F6/C C#dim7 F#maj7 F13
e|-0------5----(3)-------------------|
b|-1------3-----5-------2-------3----|
g|-2------5-----3-------3-------2----|
d|-3------3-----5-------3-------1----|
a|-3------3-----4-------4------------|
e|-1--------------------2-------1----|

Like us on Facebook.....
-> Loading Time :0.0173 sec