Never Die Tabs & Lyrics by Creed

Never Die

guitar tabs lyrics

Creed

Album : Human Clay albums i own PlayStop


Gtr I (D A D G B E) - 'clean'
Gtr II (D A D G B E) - 'dist'


Intro
Q=92
G#5 Eb5 G5 D5
4/4
Gtr I
E E E E +E E E +E E E +Q H 5x

||------------------------------|------------------||
||o-----------------------------|-----------------o||
||--8b9r(8)---3b4r(3)---7b8r(7)-|---2b3r(2)--------||
||------------------------------|------------------||
||o-----------------------------|-----------------o||
||--6---------1---------5-------|---0--------------||
Q E Q E Q E Q. H


Verse
G#5 Eb5 G5 D5
E E E E +E E E +E E E +Q H 7x
||------------------------------|------------------||
||o-----------------------------|-----------------o||
||--8b9r(8)---3b4r(3)---7b8r(7)-|---2b3r(2)--------||
||------------------------------|------------------||
||o-----------------------------|-----------------o||
||--6---------1---------5-------|---0--------------||
Q E Q E Q E Q. H


G#5 Eb5 G5 D5
E E E E +E E E +E E E +Q H
|-----------------------------|----------------------|
|-----------------------------|----------------------|
|-8b9r(8)---3b4r(3)---7b8r(7)-|---2b3r(2)------------|
|-----------------------------|----------------------|
|-----------------------------|----------------------|
|-6---------1---------5-------|---0------------------|
| Q E Q E Q E Q. H
|
| Gtr II
| PM-----|
| W H S E. S E.
|-----------------------------|----------------------|
|-----------------------------|----------------------|
|-----------------------------|----------------------|
|-----------------------------|------------0-0--0-0--|
|-----------------------------|------------0-0--0-0--|
|-----------------------------|------------0-0--0-0--|


Chorus
G#5 Eb5 G5 D5
Gtr II
PM| PM| PM| ~~~ PM-----|
E +E S S E +E S S E +E S S E +Q S E. S E.
||----------------------------------|-------------------------||
||o---------------------------------|------------------------o||
||--8b9r(8)-----3b4r(3)-----7b8r(7)-|-----2b3r(2)-------------||
||--6-----------1-----------5-------|-----0--------0-0--0-0---||
||o-6-----------1-----------5-------|-----0--------0-0--0-0--o||
||--6-------0-0-1-------0-0-5-------|-0-0-0--------0-0--0-0---||


G#5 Eb5 G5 D5
PM| PM| PM| ~~~ PM| PM|
E +E S S E +E S S E +E S S E +Q S S E S S E
|---------------------------------|--------------------------|
|---------------------------------|--------------------------|
|-8b9r(8)-----3b4r(3)-----7b8r(7)-|-----2b3r(2)------7-----7-|
|-6-----------1-----------5-------|-----0------------x-----x-|
|-6-----------1-----------5-------|-----0------------5-----5-|
|-6-------0-0-1-------0-0-5-------|-0-0-0--------0-0---0-0---|


G#5 Eb5 G5 D5
PM| PM| PM|
E +E S S E +E S S E +E S S E +H.
|---------------------------------|----------------|
|---------------------------------|----------------|
|-8b9r(8)-----3b4r(3)-----7b8r(7)-|-----2b3r(2)----|
|-6-----------1-----------5-------|-----0---(0)----|
|-6-----------1-----------5-------|-----0---(0)----|
|-6-------0-0-1-------0-0-5-------|-0-0-0---(0)----|


Interlude
G#5 Eb5 G5 D5
Gtr I
E E E E +E E E +E E E +Q H
|------------------------------|-------------------|
|------------------------------|-------------------|
|--8b9r(8)---3b4r(3)---7b8r(7)-|-----2b3r(2)-------|
|------------------------------|-------------------|
|------------------------------|-------------------|
|--6---------1---------5-------|-----0-------------|
| Q E Q E Q E Q. H
|
| Gtr II
| >
| +W +W
|------------------------------|-------------------|
|------------------------------|-------------------|
|-(2)--------------------------|-(2)---------------|
|-(0)--------------------------|-(0)---------------|
|-(0)--------------------------|-(0)---------------|
|-(0)--------------------------|-(0)---------------|


G#5 Eb5 G5 D5
Gtr I
E E E E +E E E +E E E +Q H
|-----------------------------|-----------------|
|-----------------------------|-----------------|
|-8b9r(8)---3b4r(3)---7b8r(7)-|---2b3r(2)-------|
|-----------------------------|-----------------|
|-----------------------------|-----------------|
|-6---------1---------5-------|---0-------------|
Q E Q E Q E Q. H


Verse
G#5 Eb5 G5 D5
E +E E E +E E E +E E E +Q H 7x
||------------------------------|------------------||
||o-----------------------------|-----------------o||
||--8b9r(8)---3b4r(3)---7b8r(7)-|---2b3r(2)--------||
||------------------------------|------------------||
||o-----------------------------|-----------------o||
||--6---------1---------5-------|---0--------------||
Q E Q E Q E Q. H


Eb Eb5 G5 D5
Gtr I
E +E E E +E E E +E E E +Q H
|-----------------------------|----------------------|
|-----------------------------|----------------------|
|-8b9r(8)---3b4r(3)---7b8r(7)-|---2b3r(2)------------|
|-----------------------------|----------------------|
|-----------------------------|----------------------|
|-6---------1---------5-------|---0------------------|
| Q E Q E Q E Q. H
|
| Gtr II
| PM-----|
| W H S E. S E.
|-----------------------------|----------------------|
|-----------------------------|----------------------|
|-----------------------------|----------------------|
|-----------------------------|------------0-0--0-0--|
|-----------------------------|------------0-0--0-0--|
|-----------------------------|------------0-0--0-0--|


Chorus
G#5 Eb5 G5 D5
Gtr II
PM| PM| PM| ~~~ PM-----|
E +E S S E +E S S E +E S S E +Q S E. S E.
||----------------------------------|-------------------------||
||o---------------------------------|------------------------o||
||--8b9r(8)-----3b4r(3)-----7b8r(7)-|-----2b3r(2)-------------||
||--6-----------1-----------5-------|-----0--------0-0--0-0---||
||o-6-----------1-----------5-------|-----0--------0-0--0-0--o||
||--6-------0-0-1-------0-0-5-------|-0-0-0--------0-0--0-0---||


G#5 Eb5 G5 D5
PM| PM| PM| ~~~ PM| PM|
E +E S S E +E S S E +E S S E +Q S S E S S E
|---------------------------------|--------------------------|
|---------------------------------|--------------------------|
|-8b9r(8)-----3b4r(3)-----7b8r(7)-|-----2b3r(2)------7-----7-|
|-6-----------1-----------5-------|-----0------------x-----x-|
|-6-----------1-----------5-------|-----0------------5-----5-|
|-6-------0-0-1-------0-0-5-------|-0-0-0--------0-0---0-0---|


G#5 Eb5 G5 D5
PM| PM| PM|
E +E S S E +E S S E +E S S E +H.
|---------------------------------|----------------|
|---------------------------------|----------------|
|-8b9r(8)-----3b4r(3)-----7b8r(7)-|-----2b3r(2)----|
|-6-----------1-----------5-------|-----0---(0)----|
|-6-----------1-----------5-------|-----0---(0)----|
|-6-------0-0-1-------0-0-5-------|-0-0-0---(0)----|


Bridge
D5
Gtr II
+W
||--------------------------------------|
||o-------------------------------------|
||--------------------------------------|
||--(0)---------------------------------|
||o-(0)---------------------------------|
||--(0)---------------------------------|
|
| Gtr I
| E E S S a E. S S S E E
||--------------------------------------|
||o-------------------------------------|
||--11--12-12-12-12S14--14-14S15-14-14\-|
||---x---x--x--x--x------x--x-----x--x--|
||o--9--10-10-10-10S12--12-12S13-12-12\-|
||---0---0--0--0--0------0--0-----0--0--|


+W
|----------------------------------------|
|----------------------------------------|
|----------------------------------------|
|-(0)------------------------------------|
|-(0)------------------------------------|
|-(0)------------------------------------|
|
| E E S S a E. S S S S S E
|----------------------------------------|
|----------------------------------------|
|-11--12-12-12-12S14--14-14S15-14-14\-11-|
|--x---x--x--x--x------x--x--x--x--x---x-|
|--9--10-10-10-10S12--12-12S13-12-12\--9-|
|--0---0--0--0--0------0--0-----0--0---0-|


+W
|----------------------------------------|
|----------------------------------------|
|----------------------------------------|
|-(0)------------------------------------|
|-(0)------------------------------------|
|-(0)------------------------------------|
|
| E E S S a E. S S S S S E
|----------------------------------------|
|----------------------------------------|
|-11--12-12-12-12S14--14-14S15-14-14\-14-|
|--x---x--x--x--x--x---x--x--x--x--x---x-|
|--9--10-10-10-10S12--12-12S13-12-12\-12-|
|--0---0--0--0--0------0--0-----0--0---0-|


+W
|----------------------------------------||
|---------------------------------------o||
|----------------------------------------||
|----(0)---------------------------------||
|----(0)--------------------------------o||
|----(0)---------------------------------||
|
| a E E S S E. S S S E S S
|----------------------------------------||
|---------------------------------------o||
|-11S12--12-12-12-11--11-11S12-11-11-11--||
|--x------x--x--x--x---x--x-----x--x--x--||
|--9S10--10-10-10--9---9--9S10--9--9--9-o||
|--0--0---0--0--0--0---0--0--0--0--0--0--||


N.C.
W
|------------------------------------|
|------------------------------------|
|--7---------------------------------|
|--x---------------------------------|
|--5---------------------------------|
|------------------------------------|
|
| E E S S a E. S S S E E
|------------------------------------|
|------------------------------------|
|-11-12-12-12-12S14--14-14S15-14-14\-|
|--x--x--x--x--x------x--x-----x--x--|
|--9-10-10-10-10S12--12-12S13-12-12\-|
|--0--0--0--0--0------0--0-----0--0--|


\0.5________________
+H +E Q.
|------------------------------------------------|
|------------------------------------------------|
|-(7)-----------------(7)----(7)-----------------|
|------------------------------------------------|
|-(5)-----------------(5)----(5)-----------------|
|------------------------------------------------|
|
| E E S S a E. S S S S S E
|------------------------------------------------|
|------------------------------------------------|
|-11--12-12-12-12S14------14-14S====15-14-14\-11-|
|--x---x--x--x--x----------x--x------x--x--x---x-|
|--9--10-10-10-10S12------12-12S====13-12-12\--9-|
|--0---0--0--0--0----------0--0---------0--0---0-|


/ \1
H +H
|-------------------------------------------|
|-------------------------------------------|
|--7-----------------(7)--------------------|
|-------------------------------------------|
|--5-----------------(5)--------------------|
|-------------------------------------------|
|
| E E S S a E. S S S S S E
|-------------------------------------------|
|-------------------------------------------|
|-11-12-12-12-12S14------14-14S15-14-14\-14-|
|--x--x--x--x--x--x-------x--x--x--x--x---x-|
|--9-10-10-10-10S12------12-12S13-12-12\-12-|
|--0--0--0--0--0----------0--0-----0--0---0-|


/
+H +H
|-------------------------------------------|
|-------------------------------------------|
|----(7)--------------(7)-------------------|
|-------------------------------------------|
|----(5)--------------(5)-------------------|
|-------------------------------------------|
|
| a E E S S E. S S S E S S
|-------------------------------------------|
|-------------------------------------------|
|-11S12--12-12-12-11------11-11S12-11-11-11-|
|--x------x--x--x--x-------x--x-----x--x--x-|
|--9S10--10-10-10--9-------9--9S10--9--9--9-|
|--0--0---0--0--0--0-------0--0--0--0--0--0-|


Gtr I
E E S S a E. S S S E E E E S S a E. S S S S S E
|------------------------------------|---------------------------------------|
|------------------------------------|---------------------------------------|
|-11-12-12-12-12S14--14-14S15-14-14\-|-11-12-12-12-12S14--14-14S15-14-14\-11-|
|--x--x--x--x--x------x--x-----x--x--|--x--x--x--x--x------x--x--x--x--x---x-|
|--9-10-10-10-10S12--12-12S13-12-12\-|--9-10-10-10-10S12--12-12S13-12-12\--9-|
|--0--0--0--0--0------0--0-----0--0--|--0--0--0--0--0------0--0-----0--0---0-|


E E S S a E. S S S S S E
|---------------------------------------|
|---------------------------------------|
|-11-12-12-12-12S14--14-14S15-14-14\-11-|
|--x--x--x--x--x--x---x--x--x--x--x---x-|
|--9-10-10-10-10S12--12-12S13-12-12\--9-|
|--0--0--0--0--0------0--0-----0--0---0-|


a E E S S E S S S S S S S S
|---------------------------------------|
|---------------------------------------|
|-11S12-12-12-12-11-x-x-x-x-11-11-11-11-|
|--x-----x--x--x--x-x-x-x-x--x--x--x--x-|
|--9S10-10-10-10--9-x-x-x-x--9--9--9--9-|
|--0--0--0--0--0--0---------------------|


Breakdown
N.C.
Gtr II
PM| PM| PM| PM| PM| PM|
E E S S a E S S S S E S S E E S S a E S S S S E S S
||------------------------------------|-----------------------------------|
||o-----------------------------------|-----------------------------------|
||--11-12-----12S14-----14S15-14\-----|-11-12-----12S14-----14S15-14------|
||---x--x------x---------x-----x------|--x--x------x---------x--x--x------|
||o--9-10-----10S12-----12S13-12\-----|--9-10-----10S12-----12S13-12------|
||---0--0-0-0--0----0-0-----0--0--0-0-|--0--0-0-0--0----0-0--0-----0-0-0--|


PM| PM| PM| PM| PM|
E E S S a E S S S S E S S a E E S S E E S S E S S
|----------------------------------|---------------------------------||
|----------------------------------|--------------------------------o||
|-11-12-----12S14-----14S15-14-----|-11S12-12-----11---11S12-11------||
|--x--x------x---------x-----x-----|--x-----x------x----x-----x------||
|--9-10-----10S12-----12S13-12-----|--9S10-10------9----9S10--9-----o||
|--0--0-0-0--0----0-0-----0--0-0-0-|--0--0--0-0-0----0--0-------0-0--||


Chorus
G#5 Eb5 G5 D5
PM| PM| PM| ~~~ PM-----|
E +E S S E +E S S E +E S S E +Q S E. S E.
||----------------------------------|-------------------------||
||o---------------------------------|------------------------o||
||--8b9r(8)-----3b4r(3)-----7b8r(7)-|-----2b3r(2)-------------||
||--6-----------1-----------5-------|-----0--------0-0--0-0---||
||o-6-----------1-----------5-------|-----0--------0-0--0-0--o||
||--6-------0-0-1-------0-0-5-------|-0-0-0--------0-0--0-0---||


G#5 Eb5 G5 D5
PM| PM| PM| ~~~ PM| PM|
E +E S S E +E S S E +E S S E +Q S S E S S E
|---------------------------------|--------------------------|
|---------------------------------|--------------------------|
|-8b9r(8)-----3b4r(3)-----7b8r(7)-|-----2b3r(2)------7-----7-|
|-6-----------1-----------5-------|-----0------------x-----x-|
|-6-----------1-----------5-------|-----0------------5-----5-|
|-6-------0-0-1-------0-0-5-------|-0-0-0--------0-0---0-0---|


G#5 Eb5 G5 D5
PM| PM| PM| ~~~ PM------------|
E +E S S E +E S S E +E S S E +Q S S S S S S S S
|---------------------------------|------------------------------|
|---------------------------------|------------------------------|
|-8b9r(8)-----3b4r(3)-----7b8r(7)-|-----2b3r(2)------------------|
|-6-----------1-----------5-------|-----0--------0-0-0-0-0-0-0-0-|
|-6-----------1-----------5-------|-----0--------0-0-0-0-0-0-0-0-|
|-6-------0-0-1-------0-0-5-------|-0-0-0--------0-0-0-0-0-0-0-0-|


G#5 Eb5 G5 D5
PM| PM| PM| ~~~ PM-----|
E +E S S E +E S S E +E S S E +Q S E. S E.
|---------------------------------|------------------------|
|---------------------------------|------------------------|
|-8b9r(8)-----3b4r(3)-----7b8r(7)-|-----2b3r(2)------------|
|-6-----------1-----------5-------|-----0--------0-0--0-0--|
|-6-----------1-----------5-------|-----0--------0-0--0-0--|
|-6-------0-0-1-------0-0-5-------|-0-0-0--------0-0--0-0--|


G#5 Eb5 G5 D5
5/4
PM| PM| PM| ~~~ PM----------|
E +E S S E +E S S E +E S S E +Q S E. S E. S E.
|---------------------------------|-----------------------------|
|---------------------------------|-----------------------------|
|-8b9r(8)-----3b4r(3)-----7b8r(7)-|-----2b3r(2)-----------------|
|-6-----------1-----------5-------|-----0--------0-0--0-0--0-0--|
|-6-----------1-----------5-------|-----0--------0-0--0-0--0-0--|
|-6-------0-0-1-------0-0-5-------|-0-0-0--------0-0--0-0--0-0--|


G#5 Eb5 G5 D5
4/4
PM| PM| PM| ~~~ PM| PM|
E +E S S E +E S S E +E S S E +Q S S E S S E
|---------------------------------|--------------------------|
|---------------------------------|--------------------------|
|-8b9r(8)-----3b4r(3)-----7b8r(7)-|-----2b3r(2)------7-----7-|
|-6-----------1-----------5-------|-----0------------x-----x-|
|-6-----------1-----------5-------|-----0------------5-----5-|
|-6-------0-0-1-------0-0-5-------|-0-0-0--------0-0---0-0---|


G#5 Eb5 G5 D5
PM| PM| PM|
E +E S S E +E S S E +E S S E +H.
|---------------------------------|----------------|
|---------------------------------|----------------|
|-8b9r(8)-----3b4r(3)-----7b8r(7)-|-----2b3r(2)----|
|-6-----------1-----------5-------|-----0---(0)----|
|-6-----------1-----------5-------|-----0---(0)----|
|-6-------0-0-1-------0-0-5-------|-0-0-0---(0)----|


Outro
G#5 Eb5 G5 D5
Gtr II
>
+W +W
|------------------------------|-------------------|
|------------------------------|-------------------|
|-(2)--------------------------|-(2)---------------|
|-(0)--------------------------|-(0)---------------|
|-(0)--------------------------|-(0)---------------|
|-(0)--------------------------|-(0)---------------|
|
| Gtr I
| E E E E +E E E +E E E +Q H
|------------------------------|-------------------|
|------------------------------|-------------------|
|--8b9r(8)---3b4r(3)---7b8r(7)-|-----2b3r(2)-------|
|------------------------------|-------------------|
|------------------------------|-------------------|
|--6---------1---------5-------|-----0-------------|
Q E Q E Q E Q. H


G#5 Eb5 G5 D5
Gtr I
E E E E +E E E +E E E +Q +H
|-----------------------------|----------------------*|
|-----------------------------|----------------------*|
|-8b9r(8)---3b4r(3)---7b8r(7)-|---2b3r(2)--(2)-------*|
|-----------------------------|----------------------*|
|-----------------------------|----------------------*|
|-6---------1---------5-------|---0------------(0)---*|
Q E Q E Q E H +Q.




--------------------------------------------------------------------------------


Duration Legend
---------------
W - whole; H - half; Q - quarter; E - 8th; S - 16th; T - 32nd; X - 64th; a - acciaccatura
+ - note tied to previous; . - note dotted; .. - note double dotted
Uncapitalized letters represent notes that are staccato (1/2 duration)
Irregular groupings are notated above the duration line
Duration letters will always appear directly above the note/fret number it represents the
duration for. Duration letters with no fret number below them represent rests. Multi-
bar rests are notated in the form Wxn, where n is the number of bars to rest for. Low
melody durations appear below the staff

Tablature Legend
----------------
h - hammer-on
p - pull-off
b - bend
pb - pre-bend
r - bend release (if no number after the r, then release immediately)
/\ - slide into or out of (from/to "nowhere")
s - legato slide
S - shift slide
- natural harmonic
[n] - artificial harmonic
n(n) - tapped harmonic
~ - vibrato
tr - trill
T - tap
TP - trem. picking
PM - palm muting
\n/ - tremolo bar dip; n = amount to dip
\n - tremolo bar down
n/ - tremolo bar up
/n\ - tremolo bar inverted dip
= - hold bend; also acts as connecting device for hammers/pulls
- volume swell (louder/softer)
x - on rhythm slash represents muted slash
o - on rhythm slash represents single note slash

Misc Legend
-----------
| - bar
|| - double bar
||o - repeat start
o|| - repeat end
*| - double bar (ending)
: - bar (freetime)
$ - Segno
& - Coda
Tempo markers - = BPM(8/16=s8/s16), where s8 = swing 8ths, s16 = swing 16ths




Like us on Facebook.....
-> Loading Time :0.0095 sec