Monster Tabs & Lyrics by Flotsam and Jetsam

Monster

guitar tabs lyrics

Flotsam and Jetsam

Album : High groove metal PlayStop


Transcribed by Udo Panyon


Music by Flotsam & Jetsam

Gtr I (D A D G B E) - 'Rhythm'
Gtr II (D A D G B E) - 'Lead'
Gtr III (E A D G B E) - 'slide'

Intro

Q=134
4/4
Gtr I
PM--| PM| PM--| PM| PM--------------|
Q S S E E E E E 4x Q S S E E E E E 7x Q E. S S S S S S S S S
||--------------------||-||--------------------||--------------------------|
||o------------------o||-||o------------------o||--------------------------|
||--------------------||-||--------------------||--------------------------|
||-----------3-----3--||-||-----------3-----3--||--------------------------|
||o-0--------3---x-3-o||-||o-0--------3---x-3-o||-/5--3--0-----------------|
||--0--0-0-3---0-x----||-||--0--0-0-3---0-x----||----------6-5-3-0-3-5-3-0-|
|
| Gtr II
| PM--| PM| PM--------------|
| W 4x Q S S E E E E E 7x Q E. S S S S S S S S S
||--------------------||-||--------------------||--------------------------|
||o------------------o||-||o------------------o||--------------------------|
||--------------------||-||--------------------||--------------------------|
||--------------------||-||-----------3-----3--||--------------------------|
||o------------------o||-||o-0--------3---x-3-o||-/5--3--0-----------------|
||--------------------||-||--0--0-0-3---0-x----||----------6-5-3-0-3-5-3-0-|


Verse
Gtr I
PM--| PM| PM------------|
Q S S E E E E E 3x Q E. S E E S S E Q S S S S E E E E
||--------------------||--------------------||----------------------|
||o------------------o||--------------------||o---------------------|
||--------------------||------------5-7p5---||----------------------|
||-----------3-----3--||-----3--5s7-------7-||--0-------------------|
||o-0--------3---x-3-o||-/5-----------------||o-0------------0---3--|
||--0--0-0-3---0-x----||--------------------||--0--3-3-3-3-5---5----|
|
| Gtr II
| PM--| PM| PM------------|
| Q S S E E E E E 3x Q E. S E E S S E Q S S S S E E E E
||--------------------||--------------------||----------------------|
||o------------------o||--------------------||o---------------------|
||--------------------||------------5-7p5---||----------------------|
||-----------3-----3--||-----3--5s7-------7-||--0-------------------|
||o-0--------3---x-3-o||-/5-----------------||o-0------------0---3--|
||--0--0-0-3---0-x----||--------------------||--0--3-3-3-3-5---5----|


1.
Gtr I
PM--------| PM------------| PM--------------|
Q S S S S E E Q Q S S S S E E E E Q E. S S S S S S S S S
|--------------------|--------------------|----------------------------||
|--------------------|--------------------|---------------------------o||
|--------------------|--------------------|----------------------------||
|-0------------------|-0------------------|----------------------------||
|-0------------3-5\--|-0------------0---3-|-/5--3--0------------------o||
|-0--3-3-3-3-5-------|-0--3-3-3-3-5---5---|----------6-5-3-0-3-5-3-0---||
|
| Gtr II
| PM--------| PM------------| PM--------------|
| Q S S S S E E Q Q S S S S E E E E Q E. S S S S S S S S S
|--------------------|--------------------|----------------------------||
|--------------------|--------------------|---------------------------o||
|--------------------|--------------------|----------------------------||
|-0------------------|-0------------------|----------------------------||
|-0------------3-5\--|-0------------0---3-|-/5--3--0------------------o||
|-0--3-3-3-3-5-------|-0--3-3-3-3-5---5---|----------6-5-3-0-3-5-3-0---||


Pre-Chorus
2.
Gtrs I, II
PM|
Q E. S E E S S E H +E E E E +E E Q E E E E
|--------------------||-----------------|-------------------|
|--------------------||o----------------|-------------------|
|------------5-7p5---||-----------------|-------------------|
|-----3--5s7-------7-||--7----(7)-6-5-3-|-(3)-3-3--3-3------|
|-/5-----------------||o-7----(7)-6-5-3-|-(3)-3-3--3-3-0-3--|
|--------------------||--7----(7)-6-5-3-|-(3)-3-3--3-3-0-3--|


1. 2.
PM PM|
H +E E E E +E E E E +E E E E W
|----------------|----------------------||------|
|----------------|---------------------o||------|
|----------------|----------------------||------|
|-7----(7)-6-5-0-|-(0)-----3-(3)-3------||-5----|
|-7----(7)-6-5-0-|-(0)-0---3-(3)-3-0-3-o||-5----|
|-7----(7)-6-5-0-|-(0)-0-0-3-(3)-3-0-3--||-5----|


Guitar Break
Gtrs I, II Gtr I
PM---| PM|
+E E E E E E Q Q S S E E E E E
|------------------|-------------------|
|------------------|-------------------|
|------------------|-------------------|
|-(5)-6---6-6-5-3--|-----------3-----3-|
|-(5)-6---6-6-5-3--|-0---------3---x-3-|
|-(5)-6---6-6-5-3--|-0--0--0-3---0-x---|
|
| Gtr II
| W q H.
|------------------|-------------------|
|------------------|-------------------|
|------------------|-------------------|
|------------------|-0-----------------|
|------------------|-0-----------------|
|------------------|-0-----------------|


PM--| PM| PM--| PM|
Q S S E E E E E Q S S E E E E E
|------------------|---------------------|
|------------------|---------------------|
|------------------|---------------------|
|----------3-----3-|------------3-----3--|
|-0--------3---x-3-|--0---------3---x-3--|
|-0--0-0-3---0-x---|--0---0-0-3---0-x----|
|
| <
| W +W
|------------------|---------------------|
|------------------|---------------------|
|-7----------------|-(7)-----------------|
|------------------|---------------------|
|------------------|---------------------|
|------------------|---------------------|


Gtr I
PM--| PM--| PM----------------|
Q S S E E E E E Q E. S S S S S S S S S
|---------------------------|---------------------------------|
|---------------------------|---------------------------------|
|---------------------------|---------------------------------|
|---------------3---------3-|---------------------------------|
|-0-------------3-------x-3-|-/5-------3--0-------------------|
|-0-------0-0-3-----0---x---|---------------6---5-3-0-3-5-3-0-|
|
| Gtr II
| ~ ~ ~~ ~
| E S S Q E S S Q E S S Q E S S Q
|---------------------------|---------------------------------|
|---------------------------|---------------------------------|
|-7b9-5---5-----7b9-5---5---|--7b9-5---5----7b9---5---5-------|
|-------7-------------7-----|--------7--------------7---------|
|---------------------------|---------------------------------|
|---------------------------|---------------------------------|


PM--| PM| PM--| PM|
Q S S E E E E E Q S S E E E E E
|---------------------------|----------------------------------|
|---------------------------|----------------------------------|
|---------------------------|----------------------------------|
|---------------3---------3-|---------------------3--------3---|
|-0-------------3------x--3-|-0-------------------3-----x--3---|
|-0-------0-0-3-----0--x----|-0---------0-0-3--------0--x------|
|
| ~ ~~~ ~~~
| E S S Q S S E +Q E +S S e E +Q +Q
|---------------------------|----------------------------------|
|---------------------------|---------------8b10-(8)---(8)-----|
|-7b9-5---5-----------------|-7b9r(7)p5------------------------|
|-------7-------7-5-7-(7)---|-----------7----------------------|
|---------------------------|----------------------------------|
|---------------------------|----------------------------------|


Gtr I
PM--| PM| PM------------|
Q S S E E E E E Q E. S E E S S E Q S S S S E E E E
|--------------------|---------------------------|-------------------------|
|--------------------|---------------------------|-------------------------|
|--------------------|----------------5--7p=5----|-------------------------|
|------------3-----3-|-----3--5s7--------------7-|--0----------------------|
|-0----------3---x-3-|-/5------------------------|--0---------------0---3--|
|-0----0-0-3---0-x---|---------------------------|--0-----3-3-3-3-5---5----|
|
| Gtr II
| ~~~~~
| E E E E E E E E Q E. S S S E S S E W
|--------------------|---------------------------|-------------------------|
|------------6-5-6-5-|------------------10-11-13-|-13b15-------------------|
|------5---7---------|-/7--5--5-9-10-12----------|-------------------------|
|---/7---------------|---------------------------|-------------------------|
|--------------------|---------------------------|-------------------------|
|--------------------|---------------------------|-------------------------|


Verse
Gtr I
PM--------| PM------------| PM--------------|
Q S S S S E E Q Q S S S S E E E E Q E. S S S S S S S S S
|--------------------|--------------------|---------------------------|
|--------------------|--------------------|---------------------------|
|--------------------|--------------------|---------------------------|
|-0------------------|-0------------------|---------------------------|
|-0------------3-5\--|-0------------0---3-|-/5--3--0------------------|
|-0--3-3-3-3-5-------|-0--3-3-3-3-5---5---|----------6-5-3-0-3-5-3-0--|
|
| Gtr II
| PM--------| PM------------| PM--------------|
| Q S S S S E E Q Q S S S S E E E E Q E. S S S S S S S S S
|--------------------|--------------------|---------------------------|
|--------------------|--------------------|---------------------------|
|--------------------|--------------------|---------------------------|
|-0------------------|-0------------------|---------------------------|
|-0------------3-5\--|-0------------0---3-|-/5--3--0------------------|
|-0--3-3-3-3-5-------|-0--3-3-3-3-5---5---|----------6-5-3-0-3-5-3-0--|


Gtrs I, II
PM------------| PM--------| PM------------|
Q S S S S E E E E Q S S S S E E Q Q S S S S E E E E
|--------------------|--------------------|--------------------|
|--------------------|--------------------|--------------------|
|--------------------|--------------------|--------------------|
|-0------------------|-0------------------|-0------------------|
|-0------------0---3-|-0------------3-5\--|-0------------0---3-|
|-0--3-3-3-3-5---5---|-0--3-3-3-3-5-------|-0--3-3-3-3-5---5---|


Pre-Chorus
Gtrs I, II
PM|
Q E. S E E S S E H +E E E E +E E Q E E E E
|--------------------||-----------------|-------------------|
|--------------------||o----------------|-------------------|
|------------5-7p5---||-----------------|-------------------|
|-----3--5s7-------7-||--7----(7)-6-5-3-|-(3)-3-3--3-3------|
|-/5-----------------||o-7----(7)-6-5-3-|-(3)-3-3--3-3-0-3--|
|--------------------||--7----(7)-6-5-3-|-(3)-3-3--3-3-0-3--|


1.
Gtrs I, II
H +E E E E +E E Q E E Q
|----------------|-------------------||
|----------------|------------------o||
|--------------5-|-(5)-5-5--5-5-5\---||
|-7----(7)-6-5-5-|-(5)-5-5--5-5-5\---||
|-7----(7)-6-5-3-|-(3)-3-3--3-3-3\--o||
|-7----(7)-6-5---|-------------------||


2.
Gtrs I, II
H +E E E E +E E E E +E E Q
|----------------|--------------------|
|----------------|--------------------|
|--------------5-|-(5)-5-5-6-(6)-6-6--|
|-7----(7)-6-5-5-|-(5)-5-5-6-(6)-6-6--|
|-7----(7)-6-5-3-|-(3)-3-3-4-(4)-4-4--|
|-7----(7)-6-5---|--------------------|


Chorus
~~~~~~ PM| ~~~~~~
Q E E +E Q E +E E E E +E Q E
||--------------------|----------------------|
||o-------------------|----------------------|
||--7\--------------7-|-(7)\---------------7-|
||--7\--------------7-|-(7)\---------------7-|
||o-5\----5-(5)-5\--5-|-(5)\-3-5-5-(5)-5\--5-|
||------5-6-(6)-5\----|------3-5-6-(6)-5\----|


1.,2.,3.
PM| ~~~~~~ PM--------|
E E E E +E Q E +E E E E E E E E 4x
|--------------------|--------------------||
|--------------------|-------------------o||
|-7\-----------------|--------------------||
|-7\---------------3-|-(3)----------------||
|-5\-3-5-5-(5)-5\--3-|-(3)-3-3-3-3-3-3-3-o||
|----3-5-6-(6)-5\--3-|-(3)-3-3-3-3-3-3-3--||


4.
~~~~~~ PM------|
Q E E +E Q E +E E E E E E E E
|-------------------|-------------------|
|-------------------|-------------------|
|-7\----------------|-------------------|
|-7\--------------3-|-(3)---------------|
|-5\----5-(5)-5\--3-|-(3)-3-3-3-3-3-3-5-|
|-----5-6-(6)-5\--3-|-(3)-3-3-3-3-3-3-5-|


Gtr I Gtrs I, II G
PM---| PM| PM--| PM| PM--| PM|
Q S S E E E E E Q S S E E E E E Q S S E E E E E
|-------------------|------------------|------------------|
|-------------------|------------------|------------------|
|-------------------|------------------|------------------|
|-----------3-----3-|----------3-----3-|----------3-----3-|
|-0---------3---x-3-|-0--------3---x-3-|-0--------3---x-3-|
|-0--0--0-3---0-x---|-0--0-0-3---0-x---|-0--0-0-3---0-x---|
|
| Gtr II
| q H. W W
|-------------------|------------------|------------------|
|-------------------|------------------|------------------|
|-------------------|------------------|------------------|
|-0-----------------|------------------|------------------|
|-0-----------------|------------------|------------------|
|-0-----------------|------------------|------------------|


Guitar Solo
tr I
PM-----------------------------|
Q E. S S S S S S S S S
|-------------------------------------------------|
|-------------------------------------------------|
|-------------------------------------------------|
|-------------------------------------------------|
|-/5------3----0----------------------------------|
|-----------------6------5---3-0--3----5---3--0---|
|
| Gtr II
| Q Q S +S E E +E
|-------------------------------------------------|
|-15-----13---------------------------------------|
|-17b19--15b17---12b14r(12)p10---12b14r==(12)-----|
|-------------------------------------------------|
|-------------------------------------------------|
|-------------------------------------------------|


Gtr I
PM--------------------| PM---------|
Q S S S S E E E E Q S S S S E E Q
|------------------------------|-------------------------------|
|------------------------------|-------------------------------|
|------------------------------|-------------------------------|
|--0---------------------------|---0---------------------------|
|--0-------------------0-----3-|---0------------------3--5\----|
|--0--3-3-3-3--5----------5----|---0------3-3-3-3--5-----------|
|
| Gtr II
| ~~ ~~~~~~~~~
| H E E E E +E E Q E E E E
|------------------------------|-------------------------------|
|-------------12b12.5-12-10-12-|-(12)-10-----------------------|
|-------------12b12.5-12-10-12-|-(12)-----------------------10-|
|-12---------------------------|---------12-------12-10-12-----|
|------------------------------|-------------------------------|
|------------------------------|-------------------------------|


PM---------------------| PM---------------|
Q S S S S E E E E Q E. S S S S S S S S S
|---------------------------------------|-------------------------------|
|---------------------------------------|-------------------------------|
|---------------------------------------|-------------------------------|
|--0------------------------------------|-------------------------------|
|--0---------------------------0------3-|--/5---3--0--------------------|
|--0----------3-3--3-3--5----------5----|------------6-5-3-0-3--5-3-0---|
|
| ~~~~ ~~~~
| E +E E E E +E E E +H. Q
|---------------------------------------|-------------------------------|
|-12b13r(12)------10---12b13r(12)-10----|-------------------------------|
|-12b13r(12)------10---12b13r(12)-10----|-------------------------------|
|------------12----------------------12-|-(12)---------------5/---------|
|---------------------------------------|-------------------------------|
|---------------------------------------|-------------------------------|


Gtr I
PM----------------------| PM--------|
Q S S S S E E E E Q S S S S E E Q
|-----------------------------------------|-----------------------------|
|-----------------------------------------|-----------------------------|
|-----------------------------------------|-----------------------------|
|--0--------------------------------------|---0-------------------------|
|--0------------------------------0-----3-|---0----------------3---5\---|
|--0-----------3-3--3----3-----5-----5----|---0------3-3-3-3-5----------|
|
| Gtr II
| |--3--| |---3---|
| E S S S E S S S E E E E +E E H +Q
|-10----------12--------------10-------13-|-(13)-10-10-----------(10)\--|
|-----------------------------------------|-----------------------------|
|----12p10h12------12p10h==12----12-10----|-----------------------------|
|-----------------------------------------|-----------------------------|
|-----------------------------------------|-----------------------------|
|-----------------------------------------|-----------------------------|


PM----------------|
Q S S S S E E E E Q E. S E E S S E
|-----------------------------|----------------------------------------|
|-----------------------------|----------------------------------------|
|-----------------------------|--------------------------5---7p=5------|
|--0--------------------------|-------------------3--5s7------------7--|
|--0------------------0-----3-|-/5-------------------------------------|
|--0-----3-3--3-3--5-----5----|----------------------------------------|
|
| E E E E E E E E Q a +H +E +E
|----15-----------17-------20-|-20b22r=(20)b22==(20)-------(20)r==(20)-|
|-12----12---13------18-20----|----------------------------------------|
|-----------------------------|----------------------------------------|
|-----------------------------|----------------------------------------|
|-----------------------------|----------------------------------------|
|-----------------------------|----------------------------------------|


Gtr I Gtrs I, II
PM| PM PM|
H +E E E E +E E Q E E E E H +E E E E +E E E E +E E E E
|--------------------|------------------|----------------|---------------------|
|--------------------|------------------|----------------|---------------------|
|--------------------|------------------|----------------|---------------------|
|--7-------(7)-6-5-3-|-(3)-3-3--3-3-----|-7----(7)-6-5-0-|-(0)-----3-(3)-3-----|
|--7-------(7)-6-5-3-|-(3)-3-3--3-3-0-3-|-7----(7)-6-5-0-|-(0)-0---3-(3)-3-0-3-|
|--7-------(7)-6-5-3-|-(3)-3-3--3-3-0-3-|-7----(7)-6-5-0-|-(0)-0-0-3-(3)-3-0-3-|
|
| Gtr II
| >
| W W W W
|-22b24--------------|------------------|----------------|---------------------|
|--------------------|------------------|----------------|---------------------|
|--------------------|------------------|----------------|---------------------|
|--------------------|------------------|----------------|---------------------|
|--------------------|------------------|----------------|---------------------|
|--------------------|------------------|----------------|---------------------|


Gtrs I, II
PM|
H +E E E E +E E Q E E E E H +E E E E +E E E E +E E Q
|----------------|------------------|----------------|--------------------|
|----------------|------------------|----------------|--------------------|
|----------------|------------------|--------------5-|-(5)-5-5-6-(6)-6-6--|
|-7----(7)-6-5-3-|-(3)-3-3--3-3-----|-7----(7)-6-5-5-|-(5)-5-5-6-(6)-6-6--|
|-7----(7)-6-5-3-|-(3)-3-3--3-3-0-3-|-7----(7)-6-5-3-|-(3)-3-3-4-(4)-4-4--|
|-7----(7)-6-5-3-|-(3)-3-3--3-3-0-3-|-7----(7)-6-5---|--------------------|


~~~~~~ PM| ~~~~~~
Q E E +E Q E +E E E E +E Q E
||--------------------|----------------------|
||o-------------------|----------------------|
||--7\--------------7-|-(7)\---------------7-|
||--7\--------------7-|-(7)\---------------7-|
||o-5\----5-(5)-5\--5-|-(5)\-3-5-5-(5)-5\--5-|
||------5-6-(6)-5\----|------3-5-6-(6)-5\----|


1.,2.,3.
PM| ~~~~~~ PM--------|
E E E E +E E E E +E E E E E E E E 4x
|--------------------|---------------------||
|--------------------|--------------------o||
|-7\-----------------|---------------------||
|-7\---------------3-|-(3)-----------------||
|-5\-3-5-5-(5)-5s3-3-|-(3)-3-3-3-3-3-3-3--o||
|----3-5-6-(6)-5s3-3-|-(3)-3-3-3-3-3-3-3---||


4.
~~~~~~ PM------|
Q E E +E Q E +E E E E E E E E
|-------------------|-------------------|
|-------------------|-------------------|
|-7\----------------|-------------------|
|-7\--------------3-|-(3)---------------|
|-5\----5-(5)-5\--3-|-(3)-3-3-3-3-3-3-5-|
|-----5-6-(6)-5\--3-|-(3)-3-3-3-3-3-3-5-|


Gtrs I, II
PM---| PM| PM---| PM|
Q S S E E E E E Q S S E E E E E
|----------------------------|----------------------------|
|----------------------------|----------------------------|
|----------------------------|----------------------------|
|----------------3---------3-|----------------3---------3-|
|--0-------------3-----x---3-|--0-------------3-----x---3-|
|--0------0--0-3---0---x-----|--0------0--0-3---0---x-----|
|
| Gtr III
| E E +H +Q E E +H +Q
|-13s15-(15)---------(15)\---|-13s15-(15)---------(15)\---|
|-13s15-(15)---------(15)\---|-13s15-(15)---------(15)\---|
|-13s15-(15)---------(15)\---|-13s15-(15)---------(15)\---|
|----------------------------|----------------------------|
|----------------------------|----------------------------|
|----------------------------|----------------------------|


PM---| PM| PM--| PM|
Q S S E E E E E Q S S E E E E E
|----------------------------|-------------------------|
|----------------------------|-------------------------|
|----------------------------|-------------------------|
|----------------3---------3-|--------------3--------3-|
|--0-------------3-----x---3-|--0-----------3-----x--3-|
|--0------0--0-3---0---x-----|--0-----0-0-3----0--x----|
|
| E E +H +Q E E Q E Q.
|-13s15-(15)---------(15)\---|-18-------------13-------|
|-13s15-(15)---------(15)\---|----18\------------13\---|
|-13s15-(15)---------(15)\---|-------------------------|
|----------------------------|-------------------------|
|----------------------------|-------------------------|
|----------------------------|-------------------------|


Gtrs I, II
PM---| PM| PM---| PM|
Q S S E E E E E Q S S E E E E E
|----------------------------|----------------------------|
|----------------------------|----------------------------|
|----------------------------|----------------------------|
|----------------3---------3-|----------------3---------3-|
|--0-------------3-----x---3-|--0-------------3-----x---3-|
|--0------0--0-3---0---x-----|--0------0--0-3---0---x-----|
|
| Gtr III
| E E +H +Q E E +H +Q
|-13s15-(15)---------(15)\---|-13s15-(15)---------(15)\---|
|-13s15-(15)---------(15)\---|-13s15-(15)---------(15)\---|
|-13s15-(15)---------(15)\---|-13s15-(15)---------(15)\---|
|----------------------------|----------------------------|
|----------------------------|----------------------------|
|----------------------------|----------------------------|


PM---| PM|
Q S S E E E E E Q E. S S S S S S S E
|----------------------------|-----------------------------|
|----------------------------|-----------------------------|
|----------------------------|---/7---5--------------------|
|----------------3---------3-|-----------7-6-5-3-0-3h5-3---|
|--0-------------3-----x---3-|-----------------------------|
|--0------0--0-3---0---x-----|-----------------------------|
|
| E E +H +Q a W
|-13s15-(15)---------(15)\---|-8s10\-----------------------|
|-13s15-(15)---------(15)\---|-----------------------------|
|-13s15-(15)---------(15)\---|-----------------------------|
|----------------------------|-----------------------------|
|----------------------------|-----------------------------|
|----------------------------|-----------------------------|


PM----------|
Q E. S S S S S S S E Q H.
|---------------------------|----------*|
|---------------------------|----------*|
|---------------------------|----------*|
|---------------------------|-0--------*|
|---/5---3--0---------------|-0--------*|
|-------------6-5-3-0-3-5-3-|-0--------*|
|
| a W W
|---------------------------|----------*|
|---------------------------|----------*|
|-5s=7\---------------------|----------*|
|---------------------------|----------*|
|---------------------------|----------*|
|---------------------------|----------*|



Duration Legend
---------------
W - whole; H - half; Q - quarter; E - 8th; S - 16th; T - 32nd; X - 64th; a - acciaccatura
+ - note tied to previous; . - note dotted; .. - note double dotted
Uncapitalized letters represent notes that are staccato (1/2 duration)
Irregular groupings are notated above the duration line
Duration letters will always appear directly above the note/fret number it represents the
duration for. Duration letters with no fret number below them represent rests. Multi-
bar rests are notated in the form Wxn, where n is the number of bars to rest for. Low
melody durations appear below the staff

Tablature Legend
----------------
h - hammer-on
p - pull-off
b - bend
pb - pre-bend
r - bend release (if no number after the r, then release immediately)
/\ - slide into or out of (from/to "nowhere")
s - legato slide
S - shift slide
- natural harmonic
[n] - artificial harmonic
n(n) - tapped harmonic
~ - vibrato
tr - trill
T - tap
TP - trem. picking
PM - palm muting
\n/ - tremolo bar dip; n = amount to dip
\n - tremolo bar down
n/ - tremolo bar up
/n\ - tremolo bar inverted dip
= - hold bend; also acts as connecting device for hammers/pulls
- volume swell (louder/softer)
x - on rhythm slash represents muted slash
o - on rhythm slash represents single note slash

Misc Legend
-----------
| - bar
|| - double bar
||o - repeat start
o|| - repeat end
*| - double bar (ending)
: - bar (freetime)
$ - Segno
& - Coda
Tempo markers - = BPM(8/16=s8/s16), where s8 = swing 8ths, s16 = swing 16ths



Like us on Facebook.....
-> Loading Time :0.0176 sec