Manchild Tabs & Lyrics by Eels

Manchild

guitar tabs lyrics

Eels

Album : Beautiful Freak albums i own PlayStop


----------------------------------------------------------------------------
Manchild - Eels
----------------------------------------------------------------------------
Tabbed by: acoustic-fish
Tuning: EADGBe (standard)

i tabbed this song as a request from a friend... and i do owe it to her for getting me
the eels in the first place, so here goes...

this is about 90% correct, not sure about the chorus and interlude, please leave

for corrections if you have them.


intro:
e|---------------|---------------|---------------|---------------|
B|---------0-----|---------0-----|---------5-----|---------5-----|
G|---------------|---------------|----6------6---|----6------6---|
D|----6------6---|----6------6---|--7---7------7-|--7---7------7-|
A|--7---7------7-|--7---7------7-|---------------|---------------|
E|---------------|---------------|---------------|---------------|

e|---------------|---------------|---------------|---------------|
B|---------0-----|---------0-----|---------5-----|---------5-----|
G|---------------|---------------|----6------6---|----6------6---|
D|----6------6---|----6------6---|--7---7------7-|--7---7------7-|
A|--7---7------7-|--7---7------7-|---------------|---------------|
E|---------------|---------------|---------------|---------------|


verse 1:
e|---------------|---------------|---------------|---------------|
B|---------0-----|---------0-----|---------5-----|---------5-----|
G|---------------|---------------|----6------6---|----6------6---|
D|----6------6---|----6------6---|--7---7------7-|--7---7------7-|
A|--7---7------7-|--7---7------7-|---------------|---------------|
E|---------------|---------------|---------------|---------------|
and every....me i'm here

e|---------------|---------------|---------------|---------------|
B|---------0-----|---------0-----|---------5-----|---------5-----|
G|---------------|---------------|----6------6---|----6------6---|
D|----6------6---|----6------6---|--7---7------7-|--7---7------7-|
A|--7---7------7-|--7---7------7-|---------------|---------------|
E|---------------|---------------|---------------|---------------|
and... ...for i'll share


bridge:
e|---------------|---------------|---------------|---------------|
B|---------------|---------------|--------10-----|--------10-----|
G|---------6-----|---------6-----|----8------8---|----8------8---|
D|----7------7---|----7------7---|--9---9------9-|--9---9------9-|
A|--9---9------9-|--9---9------9-|---------------|---------------|
E|---------------|---------------|---------------|---------------|
and i will be quietly... ...by

e|---------------|---------------|---------------|---------------|
B|---------------|---------------|--------10-----|--12-----------|
G|---------6-----|---------6-----|----8------8---|-----9---------|
D|----7------7---|----7------7---|--9---9------9-|-------9-------|
A|--9---9------9-|--9---9------9-|---------------|---------------|
E|---------------|---------------|---------------|---------------|
...slowly i am dying inside


chorus:
e|---------------|---------------|---------9-----|---------------|
B|---------------|---------------|---------------|--------10-----|
G|------4------6-|-----8------8--|----8------7---|---11-----11---|
D|----6------7---|---9------9----|--9---9------9-|-11--11-----11-|
A|--7------9-----|11-----11------|---------------|---------------|
E|---------------|---------------|---------------|---------------|
hold me in your arms

e|---------------|---------------|---------9-----|---------------|
B|---------------|---------------|---------------|--------10-----|
G|------4------6-|-----8------8--|----8------7---|---11-----11---|
D|----6------7---|---9------9----|--9---9------9-|-11--11-----11-|
A|--7------9-----|11-----11------|---------------|---------------|
E|---------------|---------------|---------------|---------------|
and let me be the one who can feel

e|---------9-----|---------------|---------9-----|---------------|
B|---------------|--------10-----|---------------|---------9-----|
G|----8------7---|---11-----11---|----8------8---|---------------|
D|--9---9------9-|-11--11-----11-|--9---9------9-|----8------8---|
A|---------------|---------------|---------------|--9---9------9-|
E|---------------|---------------|---------------|---------------|
like i am a child in love


verse 2:
e|---------------|---------------|---------------|---------------|
B|---------0-----|---------0-----|---------5-----|---------5-----|
G|---------------|---------------|----6------6---|----6------6---|
D|----6------6---|----6------6---|--7---7------7-|--7---7------7-|
A|--7---7------7-|--7---7------7-|---------------|---------------|
E|---------------|---------------|---------------|---------------|
every time... ...down

e|---------------|---------------|---------------|---------------|
B|---------0-----|---------0-----|---------5-----|---------5-----|
G|---------------|---------------|----6------6---|----6------6---|
D|----6------6---|----6------6---|--7---7------7-|--7---7------7-|
A|--7---7------7-|--7---7------7-|---------------|---------------|
E|---------------|---------------|---------------|---------------|
and every... ...around


bridge:
e|---------------|---------------|---------------|---------------|
B|---------------|---------------|--------10-----|-12-----10-----|
G|---------6-----|---------6-----|----8------8---|----9------9---|
D|----7------7---|----7------7---|--9---9------9-|------9------9-|
A|--9---9------9-|--9---9------9-|---------------|---------------|
E|---------------|---------------|---------------|---------------|
and when... ...forget... ...i'm not

e|---------------|---------------|---------------|---------------|
B|---------------|---------------|--------10-----|--12-----------|
G|---------6-----|---------6-----|----8------8---|-----9---------|
D|----7------7---|----7------7---|--9---9------9-|-------9-------|
A|--9---9------9-|--9---9------9-|---------------|----------9----|
E|---------------|---------------|---------------|---------------|
it isn't... ...me... ...forgot


chorus:
e|---------------|---------------|---------9-----|---------------|
B|---------------|---------------|---------------|--------10-----|
G|------4------6-|-----8------8--|----8------7---|---11-----11---|
D|----6------7---|---9------9----|--9---9------9-|-11--11-----11-|
A|--7------9-----|11-----11------|---------------|---------------|
E|---------------|---------------|---------------|---------------|
hold me in your arms

e|---------------|---------------|---------9-----|---------------|
B|---------------|---------------|---------------|--------10-----|
G|------4------6-|-----8------8--|----8------7---|---11-----11---|
D|----6------7---|---9------9----|--9---9------9-|-11--11-----11-|
A|--7------9-----|11-----11------|---------------|---------------|
E|---------------|---------------|---------------|---------------|
and let me be the one who can feel

e|---------9-----|---------------|---------9-----|---------------|
B|---------------|--------10-----|---------------|---------9-----|
G|----8------7---|---11-----11---|----8------8---|---------------|
D|--9---9------9-|-11--11-----11-|--9---9------9-|----8------8---|
A|---------------|---------------|---------------|--9---9------9-|
E|---------------|---------------|---------------|---------------|
like i am a child in love


interlude:
e|--------11-----|--------11-----|--------11-----|---------7-----|
B|----------10---|----------10---|----------10---|-----------5---|
G|----7--------9-|----7--------9-|----7--------9-|----7--------4-|
D|--9---9--------|--9---9--------|--9---9--------|--9---9--------|
A|---------------|---------------|---------------|---------------|
E|---------------|---------------|---------------|---------------|
whisper now and tell me how you'll

e|---------9-----|---------9-----|---------------|---------------|
B|-----------7---|-----------7---|---------------|---------------|
G|----7--------7-|----7--------7-|------4------4-|-----6------4--|
D|--9---9--------|--9---9--------|----6------6---|---7------6----|
A|---------------|---------------|--7------7-----|-9------7------|
E|---------------|---------------|---------------|---------------|
watch me and tell me somehow i'm gonna be

e|---------7-----|---5-----------|
B|-----------5---|---------------|
G|-------------4-|---------------|
D|----7----------|---------------|
A|--9---9--------|---------------|
E|---------------|---------------|
alright


outro:
e|---------------|---------------|---------------|---------------|
B|---------0-----|---------0-----|---------5-----|---------5-----|
G|---------------|---------------|----6------6---|----6------6---|
D|----6------6---|----6------6---|--7---7------7-|--7---7------7-|
A|--7---7------7-|--7---7------7-|---------------|---------------|
E|---------------|---------------|---------------|---------------|

e|---------------|---------------|---------------|---------------|
B|---------0-----|---------0-----|---------5-----|---------5-----|
G|---------------|---------------|----6------6---|----6------6---|
D|----6------6---|----6------6---|--7---7------7-|--7---7------7-|
A|--7---7------7-|--7---7------7-|---------------|---------------|
E|---------------|---------------|---------------|---------------|

e|---------------|---------------|---------------|---------------|
B|---------0-----|---------0-----|---------5-----|---------5-----|
G|---------------|---------------|----6------6---|----6------6---|
D|----6------6---|----6------6---|--7---7------7-|--7---7------7-|
A|--7---7------7-|--7---7------7-|---------------|---------------|
E|---------------|---------------|---------------|---------------|

(repeat as much as needed and fade out)


enjoy!


lyrics:

and every time you crave for me i'm, here
and anything you hunger for i'll share
and i will be quietly standing by
while slowly i am dying inside

hold me in your arms
and let me be the one who can feel
like i am a child in love

every time i talk to you you're down
and every time you need a laugh i'm around
and when you forget i'm here i'm not
it isn't really me that you forgot

hold me in your arms
and let me be the one who can feel
like i am a child in love

whisper now
and tell me how you'll watch me
and tell me somehow i'm gonna be alright
============================================================================
| / slide up
| \ slide down
| h hammer-on
| p pull-off
| ~ vibrato
| + harmonic
| x Mute note
============================================================================

Like us on Facebook.....
-> Loading Time :0.0272 sec