Making the Bombs Tabs & Lyrics by Circle Jerks

Making the Bombs

guitar tabs lyrics

Circle Jerks

Album : Wonderful punk rock PlayStop


circle jerks
making the bombs
(intro)

E----------------------------------|
A----------------------------------|
D----------------------------------|
G-------------3-2-0--------2-------|
B-3-2-0-5-3-2-------3-2-0--2-------|
E--------------------------0-------|


hold that chord into this part. this is like the basic part for the verse.
ill tab out the rest later.

E---------------------|
A---------------------|
D---------------------| repeat
G--------22-----------|
B-222222222-----------|
E-000000000-----------|

e-mail me at rustinpeace0@hotmail.com if wanna was any questions



Like us on Facebook.....
-> Loading Time :0.0078 sec