Magnet Tabs & Lyrics by Bikini Kill

Magnet

guitar tabs lyrics

Bikini Kill

Album : Pussy Whipped riot grrrl PlayStop


Bass intro:

G|----------------------------------------------|
D|----------------------------------------------|
A|----------------------------------------------|
E|---0-0-0-0---5-5-5-5---1-1-1-1---3-3-3-3------|

Guitar (verse) "you don't own me....fuck"
e|--------------------------------|
B|--------------------------------|

G|---------2-2-2------------------|
D|-2-2-2---2-2-2---3-3-3---5-5-5--|
A|-2-2-2---0-0-0---3-3-3---5-5-5--|
E|-0-0-0-----------1-1-1---3-3-3--|


Bass chorus
G|----------------------------------------|
D|----------------------------------------|
A|----------------------5----------5-5-5--|
E|--5-5-5-5-3---0-0-0-0----1-1-1-1--------|

"Chorus" "I got the love that's strong and not weak"
A5 G5 E D F
e|------------------------------------|
B|-----------------3-----------3-3-3--|
G|-----------------2-----------2-2-2--|
D|--7-7-7-5--2-2-2-----3-3-3-3--------|
A|--7-7-7-5--2-2-2-----3-3-3-3--------|
E|--5-5-5-3--0-0-0-----1-1-1-1--------|

it should be righ...it's really simple
for any problems u can e-mail
jennydani@hotmail.it

Like us on Facebook.....
-> Loading Time :0.0075 sec