Lying From You Tabs & Lyrics by LINKIN PARK

Lying From You

guitar tabs lyrics

LINKIN PARK

Album : Live in Texas albums i own PlayStop


Tuning is half a step down from standard E and dropped into c#

..-plam mute /slide up \slide down
h-hammer on


Riff
-|---------------------------------|
-|---------------------------------|
-|---------------------------------|

-|-0-0-0-0-0h2-1-0-1-0-3-1-0-0h1/6-|
-|-0-0-0-0-0h2-1-0-1-0-3-1-0-0h1/6-|
-|-0-0-0-0-0h2-1-0-1-0-3-1-0-0h1/6-|
.......
Riff 2 Riff 3
-|-----------------|-----------------|
-|-----------------|-----------------|
-|-----------------|-----------------|
-|-2-2-5-5-0-0-0-0-|-5-5-5-5/7-7-7-7-|
-|-2-2-5-5-0-0-0-0-|-5-5-5-5/7-7-7-7-|
-|-2-2-5-5-0-0-0-0-|-5-5-5-5/7-7-7-7-|
Riff 4
-|-------------------------------------------------------------------|
-|-------------------------------------------------------------------|
-|-------------/12-12-12-12\9-9-9/11-11-11-11-11---------------------|
-|-0h2-1-0-1-0-/x---x--x--x\x-x-x/x---x--x--x--x-5-5-5-5-0-0-7-7-7-7-|
-|-0h2-1-0-1-0-/10-10-10-10\7-7-7/9---9--9--9--9-5-5-5-5-0-0-7-7-7-7-|
-|-0h2-1-0-1-0-----------------------------------5-5-5-5-0-0-7-7-7-7-|

-|---------------------------------------------------------------|
-|---------------------------------------------------------------|
-|/12-12-12-12\9-9-9/11-11-11-11-11------------------------------|
-|/x---x--x--x\x-x-x/x---x--x--x--x-7-7-7-7-0-0-0-0--0h2-1-0-1-0-|
-|/10-10-10-10\7-7-7/9---9--9--9--9-7-7-7-7-0-0-0-0--0h2-1-0-1-0-|
-|----------------------------------7-7-7-7-0-0-0-0--0h2-1-0-1-0-|
Riff 5
-|---------------------|
-|---------------------|
-|---------------------|
-|-7-7-7-7-7-7-7-0-0-0-|
-|-7-7-7-7-7-7-7-0-0-0-|
-|-7-7-7-7-7-7-7-0-0-0-|

Riff 1 (4x)
Riff 2 (4x)
Riff 3 (1x)
Riff 4 (2x)
Riff 2 (4x)
Riff 3 (1x)
Riff 4 (2x)
Riff 5 (1x)
Riff 1 (8x)
Riff 4 (4x)
Riff 5 (1x)

Like us on Facebook.....
-> Loading Time :0.0559 sec