Love Under Will Tabs & Lyrics by Fields of the Nephilim

Love Under Will

guitar tabs lyrics

Fields of the Nephilim

Album : The Nephilim gothic rock PlayStop



LOVE UNDER WILL
As recorded by Fields of the Nephilim
(From the 1998 Album THE NEPHILIM)

Transcribed by Corey Hunter @ www.coreyhunter.com

A5 G5 C5 B5
x 0 2 2 x x 3 5 5 x x x x 3 5 5 x x x 2 4 4 x x

Gtr I (E A D G B E) - 'Dirty goff geetar'
Gtr II (E A D G B E) - 'Clean lush goff'

Intro Intro
Goth Jig ( heh heh he ) Q.=96
12/8
Gtr I
Wx2 H. Q Q Q W.
|----------------||---------------------------|--------------------------|
|----------------||o--------------------------|--------------------------|
|----------------||---------------------------|--------------------------|
|----------------||-----------------------2---|--------------------------|
|----------------||o-0------------2---3-------|-2------------------------|
|----------------||---------------------------|--------------------------|
|
| Gtr II
| Wx2 E E E E E E E E E E E E E E E E E E E E E E E E
|----------------||-------0-----0-0-----0---0-|--------------0---------0-|
|----------------||o--------0-------0-----0---|-0------0-------0-----0---|
|----------------||-----5-----5-------5-------|------7-----7-------7-----|
|----------------||--7------------------------|----9-----9-------9-------|
|----------------||o--------------------------|--------------------------|
|----------------||---------------------------|--------------------------|


Q Q. E +H. +W.
|-----------------------------|----------------------------||
|-----------------------------|---------------------------o||
|-----------------------------|----------------------------||
|-/7---5----------------------|----------------------------||
|-------------7-(7)-----------|-(7)-----------------------o||
|-----------------------------|----------------------------||
|
| E E E E E E E E E E E E E E E E E E E E E E E E
|----------------0----------0-|---------------0---------0--||
|---------0---------0-----0---|--0------0-------0-----0---o||
|--5---5------5---------5-----|-------4-----4-------4------||
|----7------7---------7-------|-----5-----5-------5--------||
|-----------------------------|---------------------------o||
|-----------------------------|----------------------------||


Gtr II
E E E E E E E E E E E E E E E E E E E E E E E E
||------0-----0-0-----0---0-|-------------0---------0--|
||o-------0-------0-----0---|-0-----0-------0-----0----|
||----5-----5-------5-------|-----7-----7-------7------|
||--7-----------------------|---9-----9-------9--------|
||o-------------------------|--------------------------|
||--------------------------|--------------------------|


E E E E E E E E E E E E E E E E E E E E E E E E
|-------------0---------0-|-------------0---------0--||
|-------0-------0-----0---|-0-----0-------0-----0---o||
|-5---5-----5-------5-----|-----4-----4-------4------||
|---7-----7-------7-------|---5-----5-------5--------||
|-------------------------|-------------------------o||
|-------------------------|--------------------------||


Verse
$
E E E E E E E E E E E E E E E E E E E E E E E E
||------0-----0-0-----0---0-|-------------0---------0--|
||o-------0-------0-----0---|-0-----0-------0-----0----|
||----5-----5-------5-------|-----7-----7-------7------|
||--7-----------------------|---9-----9-------9--------|
||o-------------------------|--------------------------|
||--------------------------|--------------------------|


1.,2.,3. 4.
To Coda
E E E E E E E E E E E E E E E E E E E E E E E E 4x q E H. Q.
|-------------0---------0-|-------------0---------0--||-(0)------------------|
|-------0-------0-----0---|-0-----0-------0-----0---o||--0-------------------|
|-5---5-----5-------5-----|-----4-----4-------4------||--4-------------------|
|---7-----7-------7-------|---5-----5-------5--------||--5-------------------|
|-------------------------|-------------------------o||----------------------|
|-------------------------|--------------------------||----------------------|


Main Theme
Gtr I
H. Q Q Q W.
|--------------------------|--------------------------|
|--------------------------|--------------------------|
|--------------------------|--------------------------|
|----------------------2---|--------------------------|
|-0------------2---3-------|-2------------------------|
|--------------------------|--------------------------|
|
| Gtr II
| E E E E E E E E E E E E E E E E E E E E E E E E
|------0-----0-0-----0---0-|--------------0---------0-|
|--------0-------0-----0---|-0------0-------0-----0---|
|----5-----5-------5-------|------7-----7-------7-----|
|-7------------------------|----9-----9-------9-------|
|--------------------------|--------------------------|
|--------------------------|--------------------------|


Q Q. E +H. +W.
|-----------------------------|------------------------------|
|-----------------------------|------------------------------|
|-----------------------------|------------------------------|
|-/7---5----------------------|------------------------------|
|-------------7-(7)-----------|-(7)--------------------------|
|-----------------------------|------------------------------|
|
| E E E E E E E E E E E E E E E E E E E E E E E E
|----------------0----------0-|---------------0---------0----|
|---------0---------0-----0---|--0------0-------0-----0------|
|--5---5------5---------5-----|-------4-----4-------4--------|
|----7------7---------7-------|-----5-----5-------5----------|
|-----------------------------|------------------------------|
|-----------------------------|------------------------------|


H. Q Q Q W.
|--------------------------|--------------------------|
|--------------------------|--------------------------|
|--------------------------|--------------------------|
|----------------------2---|--------------------------|
|-0------------2---3-------|-2------------------------|
|--------------------------|--------------------------|
|
| E E E E E E E E E E E E E E E E E E E E E E E E
|------0-----0-0-----0---0-|--------------0---------0-|
|--------0-------0-----0---|-0------0-------0-----0---|
|----5-----5-------5-------|------7-----7-------7-----|
|-7------------------------|----9-----9-------9-------|
|--------------------------|--------------------------|
|--------------------------|--------------------------|


D.S. al Coda
Q Q. E +H. +W.
|-----------------------------|------------------------------|
|-----------------------------|------------------------------|
|-----------------------------|------------------------------|
|-/7---5----------------------|------------------------------|
|-------------7-(7)-----------|-(7)--------------------------|
|-----------------------------|------------------------------|
|
| E E E E E E E E E E E E E E E E E E E E E E E E
|----------------0----------0-|---------------0---------0----|
|---------0---------0-----0---|--0------0-------0-----0------|
|--5---5------5---------5-----|-------4-----4-------4--------|
|----7------7---------7-------|-----5-----5-------5----------|
|-----------------------------|------------------------------|
|-----------------------------|------------------------------|


Chorus
&
H. Q Q Q W.
||---------------------------|---------------------------|
||o--------------------------|---------------------------|
||---------------------------|---------------------------|
||-----------------------2---|---------------------------|
||o-0------------2---3-------|-2-------------------------|
||---------------------------|---------------------------|
|
| E E E E E E E E E E E E E E E E E E E E E E E E
||-------0-----0-0-----0---0-|--------------0---------0--|
||o--------0-------0-----0---|-0------0-------0-----0----|
||-----5-----5-------5-------|------7-----7-------7------|
||--7------------------------|----9-----9-------9--------|
||o--------------------------|---------------------------|
||---------------------------|---------------------------|


Q Q. E +H. +W. 4x
|-----------------------------|----------------------------||
|-----------------------------|---------------------------o||
|-----------------------------|----------------------------||
|-/7---5----------------------|----------------------------||
|-------------7-(7)-----------|-(7)-----------------------o||
|-----------------------------|----------------------------||
|
| E E E E E E E E E E E E E E E E E E E E E E E E 4x
|----------------0----------0-|---------------0---------0--||
|---------0---------0-----0---|--0------0-------0-----0---o||
|--5---5------5---------5-----|-------4-----4-------4------||
|----7------7---------7-------|-----5-----5-------5--------||
|-----------------------------|---------------------------o||
|-----------------------------|----------------------------||


Interlude
Gtr II
E E E E E E E E E E E E E E E E E E E E E E E E
||------0-----0-0-----0---0-|-------------0---------0-|
||o-------0-------0-----0---|-0-----0-------0-----0---|
||----5-----5-------5-------|-----7-----7-------7-----|
||--7-----------------------|---9-----9-------9-------|
||o-------------------------|-------------------------|
||--------------------------|-------------------------|


E E E E E E E E E E E E E E E E E E E E E E E E 4x
|-------------0---------0-|-------------0---------0-----||
|-------0-------0-----0---|-0-----0-------0-----0------o||
|-5---5-----5-------5-----|-----4-----4-------4---------||
|---7-----7-------7-------|---5-----5-------5-----------||
|-------------------------|----------------------------o||
|-------------------------|-----------------------------||


2nd Chorus
Gtr I
H. Q Q Q W.
||---------------------------|--------------------------|
||o--------------------------|--------------------------|
||---------------------------|--------------------------|
||-----------------------2---|--------------------------|
||o-0------------2---3-------|-2------------------------|
||---------------------------|--------------------------|
|
| Gtr II
| E E E E E E E E E E E E E E E E E E E E E E E E
||-------0-----0-0-----0---0-|--------------0---------0-|
||o--------0-------0-----0---|-0------0-------0-----0---|
||-----5-----5-------5-------|------7-----7-------7-----|
||--7------------------------|----9-----9-------9-------|
||o--------------------------|--------------------------|
||---------------------------|--------------------------|


Q Q. E +H. +W.
|-----------------------------|-------------------------------||
|-----------------------------|------------------------------o||
|-----------------------------|-------------------------------||
|-/7---5----------------------|-------------------------------||
|-------------7-(7)-----------|-(7)--------------------------o||
|-----------------------------|-------------------------------||
|
| E E E E E E E E E E E E E E E E E E E E E E E E
|----------------7----------0-|---------------0---------0-----||
|---------0---------0-----0---|--0------0-------0-----0------o||
|--5---5------5---------5-----|-------4-----4-------4---------||
|----7------7---------7-------|-----5-----5-------5-----------||
|-----------------------------|------------------------------o||
|-----------------------------|-------------------------------||


Outro
A5 G5
Gtr I
W. W.
| |
/ /

Gtr II
E E E E E E E E E E E E E E E E E E E E E E E E
|-0----0-----0-0-----0---0-|----------------0----------0-|
|--------0-------0-----0---|-0-------0--------0------0---|
|----5-----5-------5-------|-------7------7--------7-----|
|--------------------------|----10-----10-------10-------|
|--------------------------|-----------------------------|
|--------------------------|-----------------------------|


C5 B5
W. +H. Q. Q.
| | | |
/ / / /

E E E E E E E E E E E E E E E E E E E E E Q.
|--------------7---------0-|-------0------0-----0----------|
|----0---0-------0-----0---|---------10-----12------10-----|
|-5----5-----5-------5-----|--5---------9---------9--------|
|----------7-------7-------|-----7-------------------------|
|--------------------------|-------------------------------|
|--------------------------|-------------------------------|


A5 G5
W. W.
| |
/ /

E E E E E E E E E E E E E E E E E E E E E E E E
|-0----0-----0-0-----0---0-|----------------0----------0-|
|--------0-------0-----0---|-0-------0--------0------0---|
|----5-----5-------5-------|-------7------7--------7-----|
|--------------------------|----10-----10-------10-------|
|--------------------------|-----------------------------|
|--------------------------|-----------------------------|


C5 B5
W. +H. Q. Q.
| | | |
/ / / /

E E E E E E E E E E E E E E E E E E E E E Q.
|--------------7---------0-|-------0------0--------0--------|
|-0------0-------0-----0---|--0------10-----12-------10-----|
|------5-----5-----5-5-----|------------9-------------------|
|----7-----7---------------|-----7--------------10----------|
|--------------------------|--------------------------------|
|--------------------------|--------------------------------|


A5 G5
W. W.
| |
/ /

E E E E E E E E E E E E E E E E E E E E E E E E
|-0----0-----0-0-----0---0-|----------------0----------0-|
|--------0-------0-----0---|-0-------0--------0------0---|
|----5-----5-------5-------|-------7------7--------7-----|
|--------------------------|----10-----10-------10-------|
|--------------------------|-----------------------------|
|--------------------------|-----------------------------|


C5 B5
W. +H. Q. Q.
| | | |
/ / / /

E E E E E E E E E E E E Q E Q E Q E Q.
|--------------7---------0-|---------------------------|
|--------0-------0-----0---|--0-----10----10-----0-----|
|-5--5-5---5-5-------5-----|------9-----9------9-------|
|------------------7-------|---------------------------|
|--------------------------|---------------------------|
|--------------------------|---------------------------|


A5 G5
W. W.
| |
/ /

E E E E E E E E E E E E E E E E E E E E E E E E
|-0----0-----0-0-----0---0-|----------------0----------0-|
|--------0-------0-----0---|-0-------0--------0------0---|
|----5-----5-------5-------|-------7------7--------7-----|
|--------------------------|----10-----10-------10-------|
|--------------------------|-----------------------------|
|--------------------------|-----------------------------|


C5 B5
W. +H. Q. Q.
| | | |
/ / / /

E E E E E E E E E E E E +E E E Q E Q E Q E
|--------------0---------0-|-(0)----------------------------|
|-0------0-------0-----0---|---------10----12-----10---0----|
|----5-5-----5-------5-----|-----9-9-----9------9-----------|
|----------7-------7-------|--------------------------------|
|--------------------------|--------------------------------|
|--------------------------|--------------------------------|


A5 G5
W. W.
| |
/ /

E E E E E E E E E E E E E E E E E E E E E E E E
|-0----0-----0-0-----0---0-|----------------0----------0-|
|--------0-------0-----0---|-0-------0--------0------0---|
|----5-----5-------5-------|-------7------7--------7-----|
|--------------------------|----10-----10-------10-------|
|--------------------------|-----------------------------|
|--------------------------|-----------------------------|


C5 B5
W. +H. Q. Q.
| | | |
/ / / /

E E E E E E E E E E E E E E E E E E E E E E E E
|--------------0---------0-|---------------7-----------0----|
|-0------0-------0-----0---|--0------0--------0------0------|
|----5-5-----5-------5-----|-------5---5-5------5-5---------|
|----------7-------7-------|-----7--------------------------|
|--------------------------|--------------------------------|
|--------------------------|--------------------------------|


A5 G5
W. W.
| |
/ /

E E E E E E E E E E E E E E E E E E E E E E E E
|-0----0-----0-0-----0---0-|--------------0---------0-|
|--------0-------0-----0---|-0------0-------0-----0---|
|----5-----5-------5-------|------7-----7-------7-----|
|--------------------------|----9-----9-------9-------|
|--------------------------|--------------------------|
|--------------------------|--------------------------|


C5 B5
W. +H. Q. Q.
| | | |
/ / / /

E E E E E E E E E E E E +E E E Q E Q E Q E
|--------------0---------0-|-(0)----------------------------|
|-0------0-------0-----0---|---------10----12-----10---0----|
|----5-5-----5-------5-----|-----9-9-----9------9-----------|
|----------7-------7-------|--------------------------------|
|--------------------------|--------------------------------|
|--------------------------|--------------------------------|


A5 G5
W. W.
| |
/ /

E E E E E E E E E E E E E E E E E E E E E E E E
|-0----0-----0-0-----0---0-|----------------0----------0-|
|--------0-------0-----0---|-0-------0--------0------0---|
|----5-----5-------5-------|-------7------7--------7-----|
|--------------------------|----10-----10-------10-------|
|--------------------------|-----------------------------|
|--------------------------|-----------------------------|


C5 B5
W. +H. Q. Q.
| | | |
/ / / /

E E E E E E E E E E E E Q E Q E Q E Q.
|--------------0---------0-|--------------12-----10-----|
|-0------0-------0-----0---|--0------0------------------|
|----5-5-----5-----5-5-----|------------9------9--------|
|----------7---------------|------10--------------------|
|--------------------------|----------------------------|
|--------------------------|----------------------------|


A5 G5
W. W.
| |
/ /

E E E E E E E E E E E E E E E E E E E E E E E E
|-0----0-----0-0-----0---0-|----------------0----------0-|
|--------0-------0-----0---|-0-------0--------0------0---|
|----5-----5-------5-------|-------7------7--------7-----|
|--------------------------|----10-----10-------10-------|
|--------------------------|-----------------------------|
|--------------------------|-----------------------------|


C5 B5
W. +H. Q. Q.
| | | |
/ / / /

E E E E E E E E E E E E Q E Q E Q E Q E
|--------------0---------0-|-------------------------------|
|-0------0-------0-----0---|--------10----10-----12--------|
|----5-5-----5-----5-5-----|------9-----9------9------9----|
|----------7---------------|-------------------------------|
|--------------------------|-------------------------------|
|--------------------------|-------------------------------|


A5 G5
W. W.
| |
/ /

E E E E E E E E E E E E E E E E E E E E E E E E
|-0----0-----0-0-----0---0-|----------------0----------0-|
|--------0-------0-----0---|-0-------0--------0------0---|
|----5-----5-------5-------|-------7------7--------7-----|
|--------------------------|----10-----10-------10-------|
|--------------------------|-----------------------------|
|--------------------------|-----------------------------|


C5 B5
W. +H. Q. Q.
| | | |
/ / / /

E E E E E E E E E E E E Q E Q E Q E E E E
|--------------7---------0-|---------------------0---------|
|-0------0-------0-----0---|--------10----12--------0-0----|
|----5-5-----5-----5-5-----|------9-----9------9-----------|
|----------7---------------|-------------------------------|
|--------------------------|-------------------------------|
|--------------------------|-------------------------------|


A5 G5
W. W.
| |
/ /

E E E E E E E E E E E E E E E E E E E E E E E E
|-0----0-----0-0-----0---0-|----------------0----------0-|
|--------0-------0-----0---|-0-------0--------0------0---|
|----5-----5-------5-------|-------7------7--------7-----|
|--------------------------|----10-----10-------10-------|
|--------------------------|-----------------------------|
|--------------------------|-----------------------------|


C5 B5
W. +H. Q. Q.
| | | |
/ / / /

E E E E E E E E E E E E Q E Q E Q E Q.
|--------------0---------0-|----------------------------|
|-0------0-------0-----0---|--------10----12-----10-----|
|----5-5-----5-----5-5-----|------9-----9------9--------|
|----------7---------------|----------------------------|
|--------------------------|----------------------------|
|--------------------------|----------------------------|


A5
W. +W. +W. +H W
| | | |
/ / / /

W H W H W H W H
|----------------|-----------------|-----------------|-----------------*|
|----------------|-----------------|-----------------|-----------------*|
|----------------|-----------------|-----------------|-----------------*|
|----------------|-----------------|-----------------|-----------------*|
|----------------|-----------------|-----------------|-----------------*|
|----------------|-----------------|-----------------|-----------------*|


Duration Legend
---------------
W - whole; H - half; Q - quarter; E - 8th; S - 16th; T - 32nd; X - 64th; a - acciaccatura
+ - note tied to previous; . - note dotted; .. - note double dotted
Uncapitalized letters represent notes that are staccato (1/2 duration)
Irregular groupings are notated above the duration line
Duration letters will always appear directly above the note/fret number it represents the
duration for. Duration letters with no fret number below them represent rests. Multi-
bar rests are notated in the form Wxn, where n is the number of bars to rest for. Low
melody durations appear below the staff

Tablature Legend
----------------
h - hammer-on
p - pull-off
b - bend
pb - pre-bend
r - bend release (if no number after the r, then release immediately)
/\ - slide into or out of (from/to "nowhere")
s - legato slide
S - shift slide
- natural harmonic
[n] - artificial harmonic
n(n) - tapped harmonic
~ - vibrato
tr - trill
T - tap
TP - trem. picking
PM - palm muting
\n/ - tremolo bar dip; n = amount to dip
\n - tremolo bar down
n/ - tremolo bar up
/n\ - tremolo bar inverted dip
= - hold bend; also acts as connecting device for hammers/pulls
- volume swell (louder/softer)
x - on rhythm slash represents muted slash
o - on rhythm slash represents single note slash

Misc Legend
-----------
| - bar
|| - double bar
||o - repeat start
o|| - repeat end
*| - double bar (ending)
: - bar (freetime)
$ - Segno
& - Coda
Tempo markers - = BPM(8/16=s8/s16), where s8 = swing 8ths, s16 = swing 16ths


Like us on Facebook.....
-> Loading Time :0.0115 sec