Little Girls Tabs & Lyrics by Oingo Boingo

Little Girls

guitar tabs lyrics

Oingo Boingo

Album : AnthologyPlayStop


Little Girls


Oingo Boingo
Track 4



E||-------|-------|
B||-------|-------|

G||-------|-------|
D||-------|-------|
A||-------|-------|
E||-------|-------|


E E E E S S S E. E
---------------------------|
-----------6--4-6-4--------|
--------6-----------6------|
-----6---------------------|
---------------------------|
---------------------------|


Q Q E E Q Q Q
------------------------|------------|
------------------------|------------|
------------------------|------------|
------------2S--3--3----|------------|
------------0S--1--1----|--4----6----|
------------------------|--2----4----|


E E E E S S S E. E
-------|---------------------------|
-------|-----------6--4-6-4--------|
-------|--------6-----------6------|
-------|-----6---------------------|
-------|---------------------------|
-------|---------------------------|


E E E E E E Q Q Q
--------------------------|------------|
--------------------------|------------|
--------------------------|------------|
--------------2S--3--3----|------------|
--------------0S--1--1----|--4----6----|
--------------------------|--2----4----|


E E E E S S S E. E
-------|---------------------------|
-------|-----------6--4-6-4--------|
-------|--------6-----------6------|
-------|-----6---------------------|
-------|---------------------------|
-------|---------------------------|


E E E E E E E E
----------------------------------|
----------------------------------|
--9S--10--10--10--9S--10--10--10--|
--7S---8---8---8--7S---8---8---8--|
----------------------------------|
----------------------------------|


Q Q W
------------|-------------------|
------------|-------------------|
------------|-------------------|
------------|-------------------|
--4----6----|--4----------------|
--2----4----|--2----------------|


W E E E E Q Q
-------------------|------------------------|
-------------------|------------------------|
-------------------|------------------------|
-------------------|------------------------|
--8----------------|--6--6--6--6--6---------|
--6----------------|--4--4--4--4--4---------|


Q Q E E E E
-------|-------|------------------------|
-------|-------|------------------------|
-------|-------|------------------------|
-------|-------|------------------------|
-------|-------|------------8--8--8--8--|
-------|-------|------------6--6--6--6--|


Q Q
------------|-------|-------|
------------|-------|-------|
------------|-------|-------|
------------|-------|-------|
--4----6----|-------|-------|
--2----4----|-------|-------|


Q Q E E E E Q Q
------------------------|------------|
------------------------|------------|
------------------------|------------|
------------------------|------------|
------------8--8--8--8--|--4----6----|
------------6--6--6--6--|--2----4----|


Q Q E E E E
-------|-------|------------------------|
-------|-------|------------------------|
-------|-------|------------------------|
-------|-------|------------------------|
-------|-------|------------8--8--8--8--|
-------|-------|------------6--6--6--6--|


Q Q
------------|-------|-------|
------------|-------|-------|
------------|-------|-------|
------------|-------|-------|
--4----6----|-------|-------|
--2----4----|-------|-------|


Q Q E E E E Q Q
------------------------|------------|
------------------------|------------|
------------------------|------------|
------------------------|------------|
------------8--8--8--8--|--4----6----|
------------6--6--6--6--|--2----4----|


W W
-------------------|-------------------|
-------------------|-------------------|
-------------------|-------------------|
-------------------|-------------------|
--4----------------|--8----------------|
--2----------------|--6----------------|


W W
-------------------|-------------------|
-------------------|-------------------|
-------------------|-------------------|
-------------------|--6----------------|
--6----------------|--4----------------|
--4----------------|-------------------|


-------------------|-------------------|
-------------------|-------------------|
-------------------|-------------------|
-------------------|-------------------|
-------------------|-------------------|
-------------------|-------------------|


-------------------|-------------------|
-------------------|-------------------|
-------------------|-------------------|
-------------------|-------------------|
-------------------|-------------------|
-------------------|-------------------|


-------------------|-------------------|
-------------------|-------------------|
-------------------|-------------------|
-------------------|-------------------|
-------------------|-------------------|
-------------------|-------------------|


-------------------|-------------------|
-------------------|-------------------|
-------------------|-------------------|
-------------------|-------------------|
-------------------|-------------------|
-------------------|-------------------|


E E E E E E E E Q Q
--------------------------|-------------|
--------------------------|-------------|
--------------------------|-------------|
--------------------------|-------------|
--6--6--6--6--6--6--6--6--|-------/9----|
--4--4--4--4--4--4--4--4--|--4----------|


E E E E E E E E Q Q
--------------------------|-------------|
--------------------------|-------------|
--------------------------|-------------|
--------------------------|--11----6----|
--6--6--6--6--6--6--6--6--|---9----4----|
--4--4--4--4--4--4--4--4--|-------------|


E E E E E E E E Q Q
--------------------------|-------------|
--------------------------|-------------|
--------------------------|-------------|
--------------------------|-------------|
--6--6--6--6--6--6--6--6--|-------/9----|
--4--4--4--4--4--4--4--4--|--4----------|


-------------------|
-------------------|
-------------------|
-------------------|
-------------------|
-------------------|


E E E E E E E E
--------------------------|
--------------------------|
--8--8--8--8--8--8--8--8--|
--6--6--6--6--6--6--6--6--|
--------------------------|
--------------------------|


E E E E E E E E
--------------------------|
--------------------------|
--8--8--8--8--8--8--8--8--|
--6--6--6--6--6--6--6--6--|
--------------------------|
--------------------------|


-------------------|-------------------|
-------------------|-------------------|
-------------------|-------------------|
-------------------|-------------------|
-------------------|-------------------|
-------------------|-------------------|


Q Q E E E E Q Q
------------------------|------------|
------------------------|------------|
------------------------|------------|
------------------------|------------|
------------8--8--8--8--|--4----6----|
------------6--6--6--6--|--2----4----|


Q Q E E E E
-------|-------|------------------------|
-------|-------|------------------------|
-------|-------|------------------------|
-------|-------|------------------------|
-------|-------|------------8--8--8--8--|
-------|-------|------------6--6--6--6--|


Q Q
------------|-------------------|
------------|-------------------|
------------|-------------------|
------------|-------------------|
--4----6----|-------------------|
--2----4----|-------------------|


Q Q E E E E
-------------------|------------------------|
-------------------|------------------------|
-------------------|------------------------|
-------------------|------------------------|
-------------------|------------8--8--8--8--|
-------------------|------------6--6--6--6--|


Q Q
------------|-------|-------|
------------|-------|-------|
------------|-------|-------|
------------|-------|-------|
--4----6----|-------|-------|
--2----4----|-------|-------|


Q Q E E E E Q Q
------------------------|------------|
------------------------|------------|
------------------------|------------|
------------------------|------------|
------------8--8--8--8--|--4----6----|
------------6--6--6--6--|--2----4----|


W W
-------------------|-------------------|
-------------------|-------------------|
-------------------|-------------------|
-------------------|-------------------|
--4----------------|--8----------------|
--2----------------|--6----------------|


W W
-------------------|-------------------|
-------------------|-------------------|
-------------------|-------------------|
-------------------|--6----------------|
--6----------------|--4----------------|
--4----------------|-------------------|


-------|-------|-------|-------|-------|
-------|-------|-------|-------|-------|
-------|-------|-------|-------|-------|
-------|-------|-------|-------|-------|
-------|-------|-------|-------|-------|
-------|-------|-------|-------|-------|


-------|-------|-------|-------|-------|
-------|-------|-------|-------|-------|
-------|-------|-------|-------|-------|
-------|-------|-------|-------|-------|
-------|-------|-------|-------|-------|
-------|-------|-------|-------|-------|


E E E E E E E E Q Q
--------------------------|-------------|
--------------------------|-------------|
--------------------------|-------------|
--------------------------|-------------|
--6--6--6--6--6--6--6--6--|-------/9----|
--4--4--4--4--4--4--4--4--|--4----------|


E E E E E E E E Q Q
--------------------------|-------------|
--------------------------|-------------|
--------------------------|-------------|
--------------------------|--11----6----|
--6--6--6--6--6--6--6--6--|---9----4----|
--4--4--4--4--4--4--4--4--|-------------|


E E E E E E E E Q Q
--------------------------|-------------|
--------------------------|-------------|
--------------------------|-------------|
--------------------------|-------------|
--6--6--6--6--6--6--6--6--|-------/9----|
--4--4--4--4--4--4--4--4--|--4----------|


-------------------|
-------------------|
-------------------|
-------------------|
-------------------|
-------------------|


E E E E E E E E
--------------------------|
--------------------------|
--8--8--8--8--8--8--8--8--|
--6--6--6--6--6--6--6--6--|
--------------------------|
--------------------------|


E E E E E E E E
--------------------------|
--------------------------|
--8--8--8--8--8--8--8--8--|
--6--6--6--6--6--6--6--6--|
--------------------------|
--------------------------|


E E Q Q Q
-----------------------|
-----------------------|
-----------------------|
-----------------------|
--8--8-----------------|
--6--6-----------------|


E E E E E E Q
-------------------------------------|
-------------------------------------|
--11S--10S--11S--10S--11S--10--11----|
--11S--10S--11S--10S--11S--10--11----|
-------------------------------------|
-------------------------------------|


E E Q Q Q Q Q Q
-----------------------|-----------------|
-----------------------|------------6----|
-----------------------|-------5---------|
-----------------------|--3--------------|
--4--4-----------------|-----------------|
--2--2-----------------|-----------------|


E E Q Q Q
-----------------------|
-----------------------|
-----------------------|
-----------------------|
--8--8-----------------|
--6--6-----------------|


E E E E E E Q
-------------------------------------|
-------------------------------------|
--11S--10S--11S--10S--11S--10--11----|
--11S--10S--11S--10S--11S--10--11----|
-------------------------------------|
-------------------------------------|


E E Q Q Q Q Q Q
-----------------------|-----------------|
-----------------------|------------6----|
-----------------------|-------5---------|
-----------------------|--3--------------|
--4--4-----------------|-----------------|
--2--2-----------------|-----------------|


E E Q Q Q
-----------------------|
-----------------------|
-----------------------|
-----------------------|
--8--8-----------------|
--6--6-----------------|


E E E E E E Q
-------------------------------------|
-------------------------------------|
--11S--10S--11S--10S--11S--10--11----|
--11S--10S--11S--10S--11S--10--11----|
-------------------------------------|
-------------------------------------|


E E Q Q Q Q Q Q
-----------------------|-----------------|
-----------------------|------------6----|
-----------------------|-------5---------|
-----------------------|--3--------------|
--4--4-----------------|-----------------|
--2--2-----------------|-----------------|


E E E E E E Q
-------------------------------------|
-------------------------------------|
--11S--10S--11S--10S--11S--10--11----|
--11S--10S--11S--10S--11S--10--11----|
-------------------------------------|
-------------------------------------|


E E E E E E E E
-----------------------------------|
-----------------------------------|
--11S--10S--11S--10S--11-----------|
--11S--10S--11S--10S--11-----------|
-----------------------------------|
-----------------------------------|


E E E E E E Q
--------------------------------------|
--11S--10S--11S--10S--11S--10S--11----|
--11S--10S--11S--10S--11S--10S--11----|
--------------------------------------|
--------------------------------------|
--------------------------------------|


E E E E E E Q
--------------------------------------|
--15S--14S--15S--14S--15S--14S--15----|
--15S--14S--15S--14S--15S--14S--15----|
--------------------------------------|
--------------------------------------|
--------------------------------------|


E E E E E E Q
--------------------------------------|
--19S--18S--19S--18S--19S--18S--19----|
--19S--18S--19S--18S--19S--18S--19----|
--------------------------------------|
--------------------------------------|
--------------------------------------|


Q Q Q Q
--19----------------------|
--------19----------------|
--------------16----------|
--------------------------|
--------------------14----|
--------------------------|


Q Q H
------------------------|
------------------------|
------------------------|
--------13----16--------|
--14--------------------|
------------------------|


Q Q Q Q
--------------------------|
--------------------------|
--------------------------|
--------13----16----13----|
--14----------------------|
--------------------------|


Q Q Q Q
--------------------------|
--------------------------|
--------------------------|
--------13----16----13----|
--14----------------------|
--------------------------|


E E E E H
--------------14--16--------|
------13--16----------------|
--13------------------------|
----------------------------|
----------------------------|
----------------------------|


H Q Q
--11--------9----------|
--11--------9----11----|
-----------------11----|
-----------------------|
-----------------------|
-----------------------|


E E E E Q Q
---------9--11--9---------|
--9--11--9--11--9----7----|
--8--11--------------8----|
--------------------------|
--------------------------|
--------------------------|


Q Q E E E E Q Q
------------------------|------------|
------------------------|------------|
------------------------|------------|
------------------------|------------|
------------8--8--8--8--|--4----6----|
------------6--6--6--6--|--2----4----|


Q Q Q Q
----------------------|
----------------------|
-----------------8----|
----------------------|
----------------------|
----------------------|


Q Q Q Q
----------------------|
----------------------|
--6-------------------|
----------------------|
----------------------|
----------------------|


E E E E E E E E
------------------------------------|
---9S--10--10--10---9S--10--10--10--|
--10S--11--11--11--10S--11--11--11--|
------------------------------------|
------------------------------------|
------------------------------------|


Q Q W
--------------|-------------------|
--------------|-------------------|
--11----13----|-------------------|
--------------|-------------------|
--------------|--4----------------|
--------------|--2----------------|


W W
-------------------|-------------------|
-------------------|-------------------|
-------------------|-------------------|
-------------------|-------------------|
--8----------------|--6----------------|
--6----------------|--4----------------|


W
-------------------|-------------------|
-------------------|-------------------|
-------------------|-------------------|
--6----------------|-------------------|
--4----------------|-------------------|
-------------------|-------------------|


-------------------|-------------------|
-------------------|-------------------|
-------------------|-------------------|
-------------------|-------------------|
-------------------|-------------------|
-------------------|-------------------|


-------------------|-------------------|
-------------------|-------------------|
-------------------|-------------------|
-------------------|-------------------|
-------------------|-------------------|
-------------------|-------------------|


-------------------|-------------------|
-------------------|-------------------|
-------------------|-------------------|
-------------------|-------------------|
-------------------|-------------------|
-------------------|-------------------|


-------------------|-------------------|
-------------------|-------------------|
-------------------|-------------------|
-------------------|-------------------|
-------------------|-------------------|
-------------------|-------------------|


-------------------|-------------------|
-------------------|-------------------|
-------------------|-------------------|
-------------------|-------------------|
-------------------|-------------------|
-------------------|-------------------|


-------------------|-------------------|
-------------------|-------------------|
-------------------|-------------------|
-------------------|-------------------|
-------------------|-------------------|
-------------------|-------------------|


-------------------|-------------------|
-------------------|-------------------|
-------------------|-------------------|
-------------------|-------------------|
-------------------|-------------------|
-------------------|-------------------|


-------------------|
-------------------|
-------------------|
-------------------|
-------------------|
-------------------|


E E E E E E E E Q Q
--------------------------|-------------|
--------------------------|-------------|
--------------------------|-------------|
--------------------------|-------------|
--6--6--6--6--6--6--6--6--|-------/9----|
--4--4--4--4--4--4--4--4--|--4----------|


E E E E E E E E Q Q
--------------------------|-------------|
--------------------------|-------------|
--------------------------|-------------|
--------------------------|--11----6----|
--6--6--6--6--6--6--6--6--|---9----4----|
--4--4--4--4--4--4--4--4--|-------------|


E E E E E E E E Q Q
--------------------------|-------------|
--------------------------|-------------|
--------------------------|-------------|
--------------------------|-------------|
--6--6--6--6--6--6--6--6--|-------/9----|
--4--4--4--4--4--4--4--4--|--4----------|


-------------------|
-------------------|
-------------------|
-------------------|
-------------------|
-------------------|


E E E E E E E E
--------------------------|
--------------------------|
--8--8--8--8--8--8--8--8--|
--6--6--6--6--6--6--6--6--|
--------------------------|
--------------------------|


E E E E E E E E
--------------------------|-------|-------|
--------------------------|-------|-------|
--8--8--8--8--8--8--8--8--|-------|-------|
--6--6--6--6--6--6--6--6--|-------|-------|
--------------------------|-------|-------|
--------------------------|-------|-------|


Q Q E E E E Q Q
------------------------|------------|
------------------------|------------|
------------------------|------------|
------------------------|------------|
------------8--8--8--8--|--4----6----|
------------6--6--6--6--|--2----4----|


Q Q E E E E
-------|-------|------------------------|
-------|-------|------------------------|
-------|-------|------------------------|
-------|-------|------------------------|
-------|-------|------------8--8--8--8--|
-------|-------|------------6--6--6--6--|


Q Q
------------|-------|-------|
------------|-------|-------|
------------|-------|-------|
------------|-------|-------|
--4----6----|-------|-------|
--2----4----|-------|-------|


Q Q E E E E Q Q
------------------------|------------|
------------------------|------------|
------------------------|------------|
------------------------|------------|
------------8--8--8--8--|--4----6----|
------------6--6--6--6--|--2----4----|


Q Q E E E E
-------|-------|------------------------|
-------|-------|------------------------|
-------|-------|------------------------|
-------|-------|------------------------|
-------|-------|------------8--8--8--8--|
-------|-------|------------6--6--6--6--|


Q Q Q Q
------------|------------||
------------|------------||
------------|--8----6----||
------------|--6----4----||
--4----6----|------------||
--2----4----|------------||




Duration Legend
---------------
W - whole
H - half
Q - quarter
E - 8th
S - 16th
T - 32nd
X - 64th
. - note dotted
|-n-| - n-tuplets


Tablature Legend
----------------
L - tied note
x - dead note
g - grace note
(n) - ghost note
> - accentuded note
NH - natural harmonic
AH - artificial harmonic
TH - tapped harmonic
SH - semi harmonic
PH - pitch harmonic
h - hammer on
p - pull off
b - bend
br - bendRelease
pb - preBend
pbr - preBendRelease
brb - bendReleaseBend
\n/ - tremolo bar dip
\n - tremolo bar dive
-/n - tremolo bar Release up
/n\ - tremolo bar inverted dip
/n - tremolo bar return
-\n - tremolo bar Release down
S - shift slide
s - legato slide
/ - slide into from below or out of upwards
\ - slide into from above or out of downwards
~ - vibrato
W - wide vibrato
tr - trill
TP - tremolo picking
T - tapping
S - slap
P - pop
< - fade in
^ - brush up
v - brush down


Like us on Facebook.....
-> Loading Time :0.0152 sec