Lipstick Tabs & Lyrics by Imperial Teen

Lipstick

guitar tabs lyrics

Imperial Teen

Album : What Is Not to Love albums i own PlayStop


Lipstick
By Imperial Teen
Tabbed by Robert Tabb
[email protected]

intro/verse
e|------------------------------------------------------|
B|------------------------------------------------------|
G|------------------------------------------------------|
D|------------------------------------------------------|

A|------------------------------------------------------|
E|--0--0--0--0--10--10--10--10--9--9--9--9--7--7--7--7--|

Chorus:
e|--------------------------------------------------------|
B|--------------------------------------------------------|
G|--------------------------------------------------------|
D|--------------------------------------------------------|
A|--------------------------------------------------------|
E|--0--0--0--0--0--0--0--0--0--0--0-----------------------| . . .etc. . ./slide

e|--------------------------------------------------------|
B|--------------------------------------------------------|
G|--------------------------------------------------------|
D|--------------------------------------------------------|
A|--------------------------------------------------------|
E|--5--5--5--5--5--5--5--5--------------------------------| . . etc. . .

There is another guitar in there that plays a
different variation of the chorus riff. It's higher pitched.
I usually play it as:
e|------------------------------------------------------|
B|------------------------------------------------------|
G|--4--4--4--4--4-------9--9--9--9--9-------------------|
D|--2--2--2--2--2. . .--7--7--7--7--7. . .--------------|
A|------------------------------------------------------|
E|------------------------------------------------------|

There is a simple lead part in the beginning but when I
play it I just improvise, I don't know how it actually goes.
It doesn't matter too much I've found, it's basically just noise.

If you have comments or corrections email me above.

-Robert

Like us on Facebook.....
-> Loading Time :0.0212 sec