Linda Blair Tabs & Lyrics by Redd Kross

Linda Blair

guitar tabs lyrics

Redd Kross

Album : Born Innocent punk PlayStop


e: Tue, 2 Jun 1998 12:33:30 -0700
From: wnb
Subject: r/redd_kross/linda_blair.crd

Linda Blair - Redd Kross [from the album "Born Innocent"]
(Jeffrey McDonald, Steven McDonald)
Tabbed by: Tania Taylor [saragon@ozemail.com.au]


Intro:


b b b b b b b
e ------------------------------------------------------------------------
B -12-12-12-12-12-10----10-12-10----10-15-15-15-15-15-15-15-15------------
G -------------------12----------12---------------------------------------


b b
e -15-15-15-15-15-15-15-15-12-12-12-12-15-12-15-12-15-12-15-----------------
B -------------------------12-12-12-12----------------------15-15-15-15-15--
G ------------------------------------------------------------------------

b
e -12-12-12-12-12-12-12-12-------------------------12---12---12---12---14-
B -------------------------15-15-15-15-15-15-15-15---15---15---15---15----
G ------------------------------------------------------------------------


E

Verse:
E
In the Exorcist, baby
B G-A
You were really insane
E
You got busted, you got dusted
B G-A
You got busted for cocaine
E
Your born innocent, girl
B G-A
And that ain't all
E
You got it for the first time baby
B G-A
In a shower stall


Chorus:
E D A
Kidnapped raped and possessed
E D A
Linda is the Best
E D A
She used to be on the run
E D A
But now she thinks it's a lot of fun
D C G
She takes her cigarettes from her sleeve
D C G
Now she never wants to leave
D C G
Not even when she's eighteen

E - B - G - A

E B-G-A
Liiiiiiiiiiinda
E B-G-A
Liiiiiiiiiiinda
E B-G-A
Liiiiiiiiiiinda
E B-G-A
Liiiiiiiiiiinda

E


Like us on Facebook.....
-> Loading Time :0.0167 sec