Liberation Frequency Tabs & Lyrics by Refused

Liberation Frequency

guitar tabs lyrics

Refused

Album : The Shape of Punk to Come hardcore PlayStop



LIBERATION FREQUENCY
As recorded by Refused

Words by Dennis Lyxzen

Music by Refused
Transcribed by Stephen young

Gtr I (D A D G B E) - 'Untitled'


Q=140
4/4
Gtr I
4x
||---1-1--0-1--0-|--1--3--3-1-0--||-||---1-1--1-1--1-|--1--1--1-1-1--|
||o--3-3--3-3--3-|--3--3--3-3-3-o||-||o--3-3--3-3--3-|--3--3--3-3-3--|
||---2-2--0-2----|----------2-2--||-||---2-2--2-2--2-|--2--2--2-2-2--|
||---------------|---------------||-||---------------|---------------|
||o--------------|--------------o||-||o--------------|---------------|
||---------------|---------------||-||---------------|---------------|


4x 4x
|--------------|---------------||-||---1-1--0-1--0-|--1--3--3-1-0---||
|--3-3--3-3--3-|--3--3--3-3-3-o||-||o--3-3--3-3--3-|--3--3--3-3-3--o||
|--0-0--0-0--0-|--0--0--0-0-0--||-||---2-2--0-2----|----------2-2---||
|--2-2--2-2--2-|--2--2--2-2-2--||-||---------------|----------------||
|--------------|--------------o||-||o--------------|---------------o||
|--------------|---------------||-||---------------|----------------||


4x
|--1-1--1-1----|--------------||---1-1--0-1--0-|--1--3--3-1-0--||
|--3-3--3-3--3-|--3--3--3-3-3-||o--3-3--3-3--3-|--3--3--3-3-3-o||
|--2-2--2-2--0-|--0--0--0-0-0-||---2-2--0-2----|----------2-2--||
|------------2-|--2--1--1-1-1-||---------------|---------------||
|--------------|--------------||o--------------|--------------o||
|--------------|--------------||---------------|---------------||


||---1-1--1-1----|---------------||--1-1--1-1----|
||o--3-3--3-3--3-|--3--3--3-3-3-o||--3-3--3-3--3-|
||---2-2--2-2--0-|--0--0--0-0-0--||--2-2--2-2--0-|
||-------------2-|--2--1--1-1-1--||------------2-|
||o--------------|--------------o||--------------|
||---------------|---------------||--------------|


2/4 4/4
|-------|-----------------|--------------------|
|--3--3-|-----------------|--------------------|
|--0--0-|-----------------|--------------------|
|--2--1-|-0-3-7-3-5-5-3-5-|-0-3-7-3-5-5-0-3----|
|-------|-----------------|-0-3-7-3-5-5-0-3----|
|-------|-----------------|-0-3-7-3-5-5-0-3----|


|-----------------|-----------------|
|-----------------|-----------------|
|-----------------|-----------------|
|-7-3-5-5-3-5-0-0-|-0-3-7-3-5-5-0-3-|
|-7-3-5-5-3-5-0-0-|-0-3-7-3-5-5-0-3-|
|-7-3-5-5-3-5-0-0-|-0-3-7-3-5-5-0-3-|


|-----------------|-----------------|-----------------|
|-----------------|-----------------|-----------------|
|-----------------|-----------------|-----------------|
|-7-3-5-5-3-5-0-0-|-0-3-7-3-5-5-0-3-|-7-3-5-5-3-5-0-0-|
|-7-3-5-5-3-5-0-0-|-0-3-7-3-5-5-0-3-|-7-3-5-5-3-5-0-0-|
|-7-3-5-5-3-5-0-0-|-0-3-7-3-5-5-0-3-|-7-3-5-5-3-5-0-0-|


|-----------------|----------------||---1-1--1-1--1-|
|-----------------|----------------||o--3-3--3-3--3-|
|-----------------|----------------||---2-2--2-2--2-|
|-0-3-7-3-5-5-3-5-|-5-5-3-7--7-7-7-||---------------|
|-0-3-7-3-5-5-3-5-|-5-5-3-7--7-7-7-||o--------------|
|-0-3-7-3-5-5-3-5-|-5-5-3-7--7-7-7-||---------------|


|-1--1-1--1-1-1-|--------------|----------------|
|-3--3-3--3-3-3-|--3-3--3-3--3-|-3--3-3--3-3-3--|
|-2--2-2--2-2-2-|--0-0--0-0--0-|-0--0-0--0-0-0--|
|---------------|--2-2--2-2--2-|-2--2-2--2-2-2--|
|---------------|--------------|----------------|
|---------------|--------------|----------------|


|--1-1--1-1--1-|-1--1-1--1-1-1-|--1-1--1-1--1-|-1--1-1--1-1-1----||
|--3-3--3-3--3-|-3--3-3--3-3-3-|--3-3--3-3--3-|-3--3-3--3-3-3---o||
|--2-2--2-2--2-|-2--2-2--2-2-2-|--2-2--2-2--2-|-2--2-2--2-2-2----||
|--------------|---------------|--------------|------------------||
|--------------|---------------|--------------|-----------------o||
|--------------|---------------|--------------|------------------||


7x
||---1-1--0-1--0-|--1--3--3-1-0--||---------|------------------|
||o--3-3--3-3--3-|--3--3--3-3-3-o||---------|------------------|
||---2-2--0-2----|----------2-2--||---------|------------------|
||---------------|---------------||---------|-0-3-7-3-5-5-0-3--|
||o--------------|--------------o||---------|-0-3-7-3-5-5-0-3--|
||---------------|---------------||---------|-0-3-7-3-5-5-0-3--|


|-----------------|-----------------|
|-----------------|-----------------|
|-----------------|-----------------|
|-7-3-5-5-3-5-0-0-|-0-3-7-3-5-5-3-5-|
|-7-3-5-5-3-5-0-0-|-0-3-7-3-5-5-3-5-|
|-7-3-5-5-3-5-0-0-|-0-3-7-3-5-5-3-5-|


|----------------|-----------------|-----------------|
|----------------|-----------------|-----------------|
|----------------|-----------------|-----------------|
|-5-5-3-7--7-7-7-|-0-3-7-3-5-5-0-3-|-7-3-5-5-3-5-0-0-|
|-5-5-3-7--7-7-7-|-0-3-7-3-5-5-0-3-|-7-3-5-5-3-5-0-0-|
|-5-5-3-7--7-7-7-|-0-3-7-3-5-5-0-3-|-7-3-5-5-3-5-0-0-|


|-----------------|----------------|-----------------|-----------------|
|-----------------|----------------|-----------------|-----------------|
|-----------------|----------------|-----------------|-----------------|
|-0-3-7-3-5-5-3-5-|-5-5-3-7--7-7-7-|-0-3-7-3-5-5-0-3-|-7-3-5-5-3-5-0-0-|
|-0-3-7-3-5-5-3-5-|-5-5-3-7--7-7-7-|-0-3-7-3-5-5-0-3-|-7-3-5-5-3-5-0-0-|
|-0-3-7-3-5-5-3-5-|-5-5-3-7--7-7-7-|-0-3-7-3-5-5-0-3-|-7-3-5-5-3-5-0-0-|


|-----------------|----------------|-----------------|-----------------|
|-----------------|----------------|-----------------|-----------------|
|-----------------|----------------|-----------------|-----------------|
|-0-3-7-3-5-5-3-5-|-5-5-3-7--7-7-7-|-0-3-7-3-5-5-0-3-|-7-3-5-5-3-5-0-0-|
|-0-3-7-3-5-5-3-5-|-5-5-3-7--7-7-7-|-0-3-7-3-5-5-0-3-|-7-3-5-5-3-5-0-0-|
|-0-3-7-3-5-5-3-5-|-5-5-3-7--7-7-7-|-0-3-7-3-5-5-0-3-|-7-3-5-5-3-5-0-0-|


|-----------------|-----------------|-------------------|-------------|-------|
|-----------------|-----------------|-------------------|-------------|-------|
|-----------------|-----------------|-------------------|-------------|-------|
|-0-3-7-3-5-5-3-5-|-5-5-3-7--7-7-7--|-(7)-7--7-7--7-7-7-|-(7)-7-7-(7)-|--(7)--|
|-0-3-7-3-5-5-3-5-|-5-5-3-7--7-7-7--|-(7)-7--7-7--7-7-7-|-(7)-7-7-(7)-|--(7)--|
|-0-3-7-3-5-5-3-5-|-5-5-3-7--7-7-7--|-(7)-7--7-7--7-7-7-|-(7)-7-7-(7)-|--(7)--|


8x
|---------||---------------|----------------||---*|
|---------||o--3-3--3-3--3-|--3--3--3-3-3--o||---*|
|---------||---0-0--0-0--0-|--0--0--0-0-0---||---*|
|---------||---2-2--2-2--2-|--2--2--2-2-2---||---*|
|---------||o--------------|---------------o||---*|
|---------||---------------|----------------||---*|


Tablature Legend
----------------
h - hammer-on
p - pull-off
b - bend
pb - pre-bend
r - bend release (if no number after the r, then release immediately)
/\ - slide into or out of (from/to "nowhere")
s - legato slide
S - shift slide
- natural harmonic
[n] - artificial harmonic
n(n) - tapped harmonic
~ - vibrato
tr - trill
T - tap
TP - trem. picking
PM - palm muting
\n/ - tremolo bar dip; n = amount to dip
\n - tremolo bar down
n/ - tremolo bar up
/n\ - tremolo bar inverted dip
= - hold bend; also acts as connecting device for hammers/pulls
- volume swell (louder/softer)
x - on rhythm slash represents muted slash
o - on rhythm slash represents single note slash

Like us on Facebook.....
-> Loading Time :0.0088 sec