Leopard Print Tabs & Lyrics by Marvelous 3

Leopard Print

guitar tabs lyrics

Marvelous 3

Album : Math and Other Problems power pop PlayStop


Author/Artist: Marvelous 3
Title: Leapord Print
Album: Math and other problems
Transcribed by: Dustin Larrabee
Email: [email protected]

U need to get the rythm correct on this song

------------------------------------------------------------------------------
------------------------------------------------------------------------------

-----1212-11-11-9999-7/9-----5-----7------------------------------------------
-----1212-11-11-9999-7/9---5-----7--------------------------------------------
-----1010-9--9--7777-5/7--3----5----------------------------------------------
------------------------------------------------------------------------------
Intro and chorus REPEAT 2X

----3--3---2-----|--------------------------|---------------------------------
----3--3---3-----|--------------------------|---------------------------------
-----------2-----|-----999-777-555555555----|--------------7--------7---------
-------2---------|-----999-777-555555555--54|--------5---7----5---7-----------
----2--3---------|-----777-555-333333223--54|------5----5---5----5------------
----3------------|------------------------32|-----3--------3------------------
VERSE REPEAT PRE CHORUS 1 PRE CHORUS

------------------------------------------------------------------------------
------------------------------------------------------------------------------
------------------------------------------------------------------------------
---1-^2--4/5/4----4--5-4-5-7-5--10-9-7-5-^4/^5--------------------------------
------------------------------------------------------------------------------
------------------------------------------------------------------------------
SOLO

------------------------------------------------------------------------------
--------------2---------------------------------------------------------------
--------99-8--2---------------------------------------------------------------
--------99-8--2---------------------------------------------------------------
--------77-6--0---------------------------------------------------------------
------------------------------------------------------------------------------
ENDING


Order
Intro 2x
Verse 2x
PRE CHORUS 1 2X
PRE CHORUS 2 2X
CHORUS 3X
verse 2x
PRE CHORUS 1 2X
PRE CHORUS 2 2X
CHORUS 2x
SOLO
PRE CHORUS 1 2X
PRE CHORUS 2 2X
THEN CHORUS 4x
ENDING

Like us on Facebook.....
-> Loading Time :0.0218 sec