Leech Tabs & Lyrics by Malevolent Creation

Leech

guitar tabs lyrics

Malevolent Creation

Album : In Cold Blood death metal PlayStop


Leech by Malevolent Creation from the album In Cold Blood

Tune down to D.

Riff 1

d|-----------------------------|------------------------------|
A|-----------------------------|------------------------------|
F|-----------------------------|------------------------------|
C|---------4----------5------6-|---------7----------8------9--|

G|---------2----------3------4-|---------5----------6------7--|
D|-2-3-2-3----3-4-3-4----4-5---|-5-6-5-6----6-7-6-7---7-8-----|


Riff 2

d|--------------------------------|
A|--------------------------------|
F|--------------------------------|
C|--------------------------------|
G|-----22--------------44----5555-|
D|-0000--111111111-2222--3333-----|


Riff 3 ___________________________ __________________________ _________________________
1.2.3.5.6.7. | 4.| 8.|
d|-------------------------|---------------------------|--------------------------|-------------------------|
A|-------------------------|---------------------------|--------------------------|-------------------------|
F|-------------------------|---------------------------|--------------------------|-------------------------|
C|-------------------------|---------------------------|--------------------------|-------------------------|
G|-7-----------8-----------|-7-----------8-------------|--------------------------|-8---7---5---4---5---4---|
D|---6-5-0-0-0---7-6-0-0-0-|---6-5-0-0-0---7-6-0-0-0-0-|-666655553333222233335555-|-6---5---3---2---3---2---|


Riff 4 ___________________________ __________________________
1.2.3.5.6.7. | 4.8.|
d|-------------------------|---------------------------|--------------------------|
A|-------------------------|---------------------------|--------------------------|
F|-9-----------------------|-7-----------10------------|--------------------------|
C|-9-----------------------|-7-----------10------------|--------------------------|
G|-7-----------------------|-5-----------8-------------|--------------------------|
D|-------------------------|---------------------------|--------------------------|


Riff 5

d|-------------------------|-------------------------|-------------------------|-------------------------|
A|-------------------------|-------------------------|-------------------------|-------------------------|
F|-------------------------|-------------------------|-------------------------|-4-----------5-----------|
C|-2-----------3-----------|-4-----------3-----------|-2-----------3-----------|-4-----------5-----------|
G|-2-----------3-----------|-4-----------3-----------|-2-----------3-----------|-2-----------3-----------|
D|-0---0-0-0---1---0-0-0---|-2---0-0-0---1---0-0-0---|-0---0-0-0---1---0-0-0---|-----0-0-0-------0-0-0---|


Riff 6

d|-------------------------|-------------------------|
A|-------------------------|-------------------------|
F|-------------------------|-------------------------|
C|-------------------------|-2-----------------------|
G|-8---7---5---4---5---4---|-2-----------------------|
D|-6---5---3---2---3---2---|-0-----------------------|



Order

Riff 1 6x
Riff 2 4x
Riff 3 first two measures only

Riff 3 with Riff 4

Riff 3 1x
Riff 5 4x

Riff 3 first two measures only

Riff 3 with Riff 4

Riff 3 with Riff 6 replacing the 8th ending

Like us on Facebook.....
-> Loading Time :0.0106 sec